Song name
# A B C D E F G H I J K L M N O P Q R S T U V W X Y Z

Lock 53 - Dont Bother tab

lock 53
don't bother
tuning: (seven string standard dropping the G string a half
step to F#)

intro/solo
-------------------------------|
-------------------------------|
-------------------------------|
-------------------------------|
--4--9--11--9--16--16--18--16--|
-------------------------------|
--2--7---9--7--14--14--16--14--|
-------------------------------|

verse:
-----------------------------------|
-----------------------------------|
-----------------------------------|
-----------------------------------|
--4-4-4-4--------------------------|
--2-2-2-2-2-2-2-2-4-4-4-4-2-2-2-2--|
----------0-0-0-0-2-2-2-2-0-0-0-0--|

chorus:
--------------|
--------------|
--------------|
--4--6--------|
--4--6--2--4--|
--2--4--2--4--|
--------0--2--|
Tap to rate this tab
# A B C D E F G H I J K L M N O P Q R S T U V W X Y Z