Lock Up - Maniac tab

Artist:		Lock Up
Album:		Something Bitchin' This Way Comes
Song:		Maniac
Tuning:		Standard (EADGBE)
Tabbed By:	Psycho Munky

Intro
|-------------------------------------------------------------|
|-------------------------------------------------------------|
|-------------7-----------------------------------------------|
|-9--9--9-7-9---9-7-------------------------------------------|
|-9--9--------------8-7-5----5---5-7-8--7-5-7-5---------------|
|-7--7-------------------------7----------------7-5-2-5-2-0---|

|-------------------------------------------------------------|
|-------------------------------------------------------------|
|-------------7-----------------------------------------------|
|-9--9--9-7-9---9-7---------------------------7---------------|
|-9--9--------------8-7-5----5---5-7-8--7-5-9----9-7----------|
|-7--7-------------------------7----------------------2-5-2-0-|

|-------------------------------------------------------------|
|-------------------------------10----------------------------|
|-------------7-----11-9----9-7----11-9-7---------------------|
|-9--9--9-7-9---9-7-----------------------9-7---7-------------|
|-9--9----------------------------------------9---8-7-5-------|
|-7--7--------------------------------------------------7-5-0-|

|-------------------------------------------------------------|
|-------------------------------------------------------------|
|-------------7-----------------------------------------------|
|-9--9--9-7-9---9-7------------------------*----*-------------|
|-9--9--------------8-7-5----5---5-7-8-----7----5-------------|
|-7--7-------------------------7------------------------------|

Verse 1
|-------------|  |----|
|-------------|  |----|
|-7-----------|X4|----|
|-77---9////--|  |----|
|-57---9////--|  |-5--|
|--5---7////--|  |--5-|

Chorus
|--------------------------------------------------------|
|--------------------------------------------------------|
|--------------------------------------------------------|
|-------------------------------9--7---------------------|
|----5--7--5-7-9--9---7---9/----------7^--5----8-7-------|
|-7-----------------------------------------7-------5--7-|

|--------------------------------------------------------|
|--------------------------------------------------------| + Leave Note Out
|--------------------------------------------------------|   In Chorus 2
|---------------------7-------979--7---------------------|
|----5--7--5-7-9--9-------9/----------7^--5----8-7-----+-|
|-7-----------------------------------------7-------5--7-|

Verse 2 
(Guitar 1)
|-------------|  |----|
|-------------|  |----|
|-7-----------|X3|----|
|-77---9////--|  |----|
|-57---9////--|  |-5--|
|--5---7////--|  |--5-|

(Guitar 2)
|-----------------|
|-----------------|
|-4-4-4-4-4-4-4-4-|
|-----------------|
|-----------------|
|-----------------|

Bridge 1
|-------------------------------------------------------------------------------|
|-------------------------------------------------------------------------------|
|-------------------------------------------------------------------------------|
|-----------------------------------------------------------------------------9-|
|-55--------------------55--------------------55--------------------55--------9-|
|---7-x-5-x-7-x-7-x-5h7---7-x-5-x-7-x-7-x-5h7---7-x-5-x-7-x-7-x-5h7---7-x-5---7-|
PM...   .   .   .   . . ...   .   .   .   . . ...   .   .   .   . . ...   

Bridge 2 Guitar 2 Playing Some Kind Of Harmony Here, Might Be This	(Guitar 1 Plays Bridge 1)
|-------------------------------------------------------------------------------|
|-------------------------------------------------------------------------------|
|-------------------------------------------------------------------------------|
|-33--------------------33--------------------33--------------------33----------|
|---5-x-3-x-5-x-5-x-3h5---5-x-3-x-5-x-5-x-3h5---5-x-3-x-5-x-5-x-3h5---5-x-3-----|
|-------------------------------------------------------------------------------|
PM...   .   .   .   . . ...   .   .   .   . . ...   .   .   .   . . ...   

Solo Guitar 1
|--------------------------------------------------------------------------------|
|-14---15^---r---15^---r---------------------------------------------------------|
|--------------------------------------------------------------------------------|
|----------------------------12~~----12--11--------------------------------------|
|---------------------------------------------12--------------999-x-9-x-10-9~~---|
|--------------------------------------------------12--10------------------------|

Solo Guitar 2
|-----------------------------------------------------------------------------------------|
|-----------------------------------------------------------------------------------------|
|-----------------------------------------------------------------------------------------|
|-----------------------------------------------------------------------------------------|
|-55--------------------55--------------------55--------------------55--------------------|
|---7-x-5-x-7-x-7-x-5h7---7-x-5-x-7-x-7-x-5h7---7-x-5-x-7-x-7-x-5h7---7-x-5-x-7-x-7-x-0h2-|
PM...   .   .   .   . . ...   .   .   .   . . ...   .   .   .   . . ...   .   .   .   . .  

Guitar 1
|----------------14141414141412----14/---1214121412141214---19-17-14-12-------------------|
|-----------------------------------------------------------------------14-13-12----15-14-|
|Not Sure Whats -----------------------------------------------------------------14-------|
|Happening Here --------------------------------------------------------------------------|
|-----------------------------------------------------------------------------------------|
|-----------------------------------------------------------------------------------------|

Guitar 2
|-----------------------------------------------------------------------------------------|
|-----------------------------------------------------------------------------------------|
|-----------------------------------------------------------------------------------------|
|-----------------------------------------------------------------------------------------|
|-00--------------------00--------------------00--------------------00--------------------|
|---2-x-0-x-2-x-2-x-0h2---2-x-0-x-2-x-2-x-0h2---2-x-0-x-2-x-2-x-0h2---2-x-0-x-2-x-2-x-5h7-|
PM...   .   .   .   . . ...   .   .   .   . . ...   .   .   .   . . ...   .   .   .   . .   

Guitar 1
|-19191919191917--17/19//-----17/19-17----------------------------------------------------|
|---------------19----------------------19-17^r--17----7-h8p7-----------------------------|
|-------------------------------------------------------------9-7-6-h7p6------------------|
|------------------------------------------------------------------------7-5-4-4-h5p4-----|
|-----------------------------------------------------------------------------------------|
|-----------------------------------------------------------------------------------------|

Guitar 2
|-----------------------------------------------------------------------------------------|
|-----------------------------------------------------------------------------------------|
|-----------------------------------------------------------------------------------------|
|-----------------------------------------------------------------------------------------|
|-55--------------------55--------------------55--------------------55----------------5h7-|
|---7-x-5-x-7-x-7-x-5h7---7-x-5-x-7-x-7-x-5h7---7-x-5-x-7-x-7-x-5h7---7-x-5-x-7-x-7-x-----|
PM...   .   .   .   . . ...   .   .   .   . . ...   .   .   .   . . ...   .   .   .   . .

Guitar 1
|-----------------------------------------------------------------------------------------|
|-----------------------------------------------------------------------------------------|
|-\-6-/--\-7-/--\-9-/--\-11-/--\-12-x-14-/----\-11-/--\-12-/--\-14-/----------------------|
|-----------------------------------------------------------------------------------------|
|-----------------------------------------------------------------------------------------|
|-----------------------------------------------------------------------------------------|

Guitar 2
|-----------------------------------------------------------------------------------------|
|-----------------------------------------------------------------------------------------|
|-----------------------------------------------------------------------------------------|
|-55--------------------55--------------------55--------------------55--------------------|
|---7-x-5-x-7-x-7-x-5h7---7-x-5-x-7-x-7-x-5h7---7-x-5-x-7-x-7-x-5h7---7-x-5-x-7-x-7-x-----|
|-------------------------------------------------------------------------------------5h7-|
PM...   .   .   .   . . ...   .   .   .   . . ...   .   .   .   . . ...   .   .   .   . .

Guitar 1 Tremolo Picking
|-22-21-19-21-19-17-15-14-12--------------------------------------------------------------|
|---------------------------15-14-12-------------------------------1919191917-------------|
|-----------------------------------14-12-11-9-7-6-7-9-11-12-14-16-----------19-16/14-16/-|
|-----------------------------------------------------------------------------------------|
|-----------------------------------------------------------------------------------------|
|-----------------------------------------------------------------------------------------|

Guitar 2
|-----------------------------------------------------------------------------------------|
|-----------------------------------------------------------------------------------------|
|-----------------------------------------------------------------------------------------|
|-----------------------------------------------------------------------------------------|
|-55--------------------55--------------------55--------------------55--------------------|
|---7-x-5-x-7-x-7-x-5h7---7-x-5-x-7-x-7-x-5h7---7-x-5-x-7-x-7-x-5h7---7-x-5---7-----------|
PM...   .   .   .   . . ...   .   .   .   . . ...   .   .   .   . . ...   
Tap to rate this tab
 
# A B C D E F G H I J K L M N O P Q R S T U V W X Y Z