Lock Up - Everywhere I Go It Looks Like Rain tab

Artist:		Lock Up
Album:		Something Bitchin' This Way Comes
Song:		Everywhere I Go It Looks Like Rain
Tuning:		Standard (EADGBE)
Tabbed By:	Psycho Munky

Intro Part 1
|---------------------------------------------------------------------------|
|---8--------8--------------5--------5-------8------5-----------5-x-5-------|All
|-pb7--r--5--7^---5---------5--------5---7---7^--r--5--5---5----5-x-5-5-----|Finger
|----------------------5h7-----5-h7--------------------7---5h7--------5---7-|Picked
|---------------------------------------------------------------------------|
|---------------------------------------------------------------------------|

Intro Part 2                            Ending 1            Ending 2
|-------5-----------7-------------8-----|----------10-------|-10-----|
|---------5-----------7-------------8---|-------------10----|-10-----|
|-----------5-----------7-------------9-|----------------11-|-11-----|
|-----7-----------9------------10-------|-------12----------|-12-----|
|---7-----------9-----------10----------|----12-------------|-12-----|
|-5-----------7-----------8-------------|-10----------------|-10-----|

Verse 1                                 Ending 1            Ending 2
|-------5-----------7-------------8-----|----------10-------|-10-----|
|---------5-----------7-------------8---|-------------10----|-10-----|
|-----------5-----------7-------------9-|----------------11-|-11-----|X4
|-----7-----------9------------10-------|-------12----------|-12-----|
|---7-----------9-----------10----------|----12-------------|-12-----|
|-5-----------7-----------8-------------|-10----------------|-10-----|

Chorus 1
|-5----7--7--------5--5--7--7-----------5----7--7--------5--5--7--7-|
|-5----7--7--------5--5--7--7-----------5----7--7--------5--5--7--7-|
|-5----7--7--------5--5--7--7----7/5----5----7--7--------5--5--7--7-|
|-7----9--9--------7--7--9--9----7/5----7----9--9--------7--7--9--9-|
|-7----9--9--------7--7--9--9-----------7----9--9--------7--7--9--9-|
|-5----7--7--------5--5--7--7-----------5----7--7--------5--5--7--7-|

Pre Verse
|-----12-13-15-13-12----------------------|
|---x----------------15-13-12-------------|
|-x---------------------------14-12-11----|
|--------------------------------------12-|
|-----------------------------------------|
|-----------------------------------------|

Verse 2                                 Ending 1            Ending 2
|-------5-----------7-------------8-----|----------10-------|-10-----|
|---------5-----------7-------------8---|-------------10----|-10-----|
|-----------5-----------7-------------9-|----------------11-|-11-----|X4
|-----7-----------9------------10-------|-------12----------|-12-----|
|---7-----------9-----------10----------|----12-------------|-12-----|
|-5-----------7-----------8-------------|-10----------------|-10-----|

Chorus 2
|-5----7--7--------5--5--7--7-----------5----7--7--------5--5--7--7-|
|-5----7--7--------5--5--7--7-----------5----7--7--------5--5--7--7-|
|-5----7--7--------5--5--7--7----7/5----5----7--7--------5--5--7--7-|
|-7----9--9--------7--7--9--9----7/5----7----9--9--------7--7--9--9-|
|-7----9--9--------7--7--9--9-----------7----9--9--------7--7--9--9-|
|-5----7--7--------5--5--7--7-----------5----7--7--------5--5--7--7-|

Solo			*
|--------17^-r--*------17^-r---------17^-r-----------------------------------------|
|-15^-r---------15^-r---------15^-r-----------15---15-13-12------------------------|
|-----------------------------------------------------------12-------12-14/17------|
|--------------------------------------------------------------12-14---------------|
|-----------------------------------------------------------------------------14~~-|
|----------------------------------------------------------------------------------|

|------------------17-15-15^--17-15----15^r------------15-17-19-20-22^--22^--22----|
|----15-17-^-r----------------------17-----------17-18-----------------------------|
|-17-------------------------------------------------------------------------------|
|----------------------------------------------------------------------------------|
|----------------------------------------------------------------------------------|
|----------------------------------------------------------------------------------|

|--------------------------------------17--15--------------*-----------------------|
|-13/12--10---13/12--10------//17--1717--17--171917-15-17-17^-r-12-15-17-----------|
|------------------------------------------------------------------------17-17-14~~|
|----------------------------------------------------------------------------------|
|----------------------------------------------------------------------------------|
|----------------------------------------------------------------------------------|

Outro Chorus With Distortion
|-5-----7-----8------10-|   |---------------------------|
|-5-----7-----8------10-|   |-/10~~~/8~~~/7~~~/6~~~/5~~-|
|-5-----7-----9------11-|X4 |---------------------------|
|-7-----9-----10-----12-|   |---------------------------|
|-7-----9-----10-----12-|   |---------------------------|
|-5-----7-----8------10-|   |---------------------------|


Legend
*       Above A Note            Pinch Harmonic
[]      Around Note             Natural harmonic
pb      Beside A Note           Pre Bend
^       Beside Notes            Bend 1/2 Or Full Step
r       After A Note            Release Note From Bend
PM      Dots Under Notes        Palm Muting
TS      +/- Under Notes         Toggle Switch
/       Beside Notes            Slide To Note/From Note	
h       Beside Notes            Hammer On	
p       Beside Notes            Pull Off
Tap to rate this tab
 
# A B C D E F G H I J K L M N O P Q R S T U V W X Y Z