Song name
# A B C D E F G H I J K L M N O P Q R S T U V W X Y Z

Locust - We Have Reached An Official Verdict Nobody Gives A Shit tab

* = Harmonic

. = Palm mute

^ = Bend

Tapping: T = Right hand.  I = Left hand index finger. R = Left hand ring finger.


I'll just write the lyrics to each section, since The Locust don't use any kind of song 
in their songs.


------------------------------------------------------------------|
------------------------------------------------------------------|
---7*-------------------------------------------------------------|
------------------------------------------------------------------|
------------------------------------------------------------------|
------------------------------------------------------------------|


"Belching into the atmosphere..."
------------------------------------------------------------------  |x2
------------------------------------------------------------------  |
--7-7-7-7-7-7-7-8----7-7-7-7-7-7-7-8-----7-7-7-7-7-7-7-8----------  |
--6-6-6-6-6-6-6-7----6-6-6-6-6-6-6-7-----6-6-6-6-6-6-6-7----------  |
--5-5-5-5-5-5-5-6----5-5-5-5-5-5-5-6-----5-5-5-5-5-5-5-6----------  |
------------------------------------------------------------------  |
                                                                    |
------------------------------------------------------------------  |
------------11--10------------------------------------------------  |
--7-7-7-7------------11--10---------------------------------------  |
--6-6-6-6----9---8------------------------------------------------  |
--5-5-5-5-------------9---8---------------------------------------  |
------------------------------------------------------------------  |

--------------------------------------7*--------------------------|
--------------------------------------7*-----------------11^--10^-|
--7-7-7-7-7-7-7-7-7-7-7-7-7-7-7-7-----7*--------------------------|
--6-6-6-6-6-6-6-6-6-6-6-6-6-6-6-6-------------------------9^---8^-|
--5-5-5-5-5-5-5-5-5-5-5-5-5-5-5-5---------------------------------|
------------------------------------------------------------------|
  . . . . . . . . . . . . . . . .


"Shit-sucking kings, and ass-licking peasants..."
-------------------------------------------------------------------------- |
----------------------------------------------------------11--10---------- |
--7^--6^--5^----7^--6^--5^----7^--6^--5^--------------------------11--10-- |
-----------------------------------------------------------9---8---------- |x2
--5^--4^--3^----5^--4^--3^----5^--4^--3^--5-5-5-5-5-5-5-5----------9---8-- |
------------------------------------------3-3-3-3-3-3-3-3----------------- |

"Signs show that we must fly from here..."
------------------------------------------|
------------------------------------------|
------------------------------------------|
------------------------------------------|
--8-7--8-7--8-7--8-7--8-7--8-7--8-7--8-7--|
--6-5--6-5--6-5--6-5--6-5--6-5--6-5--6-5--|


"Hey incarceration generation"
-------------------------|
-------------------------|
-------------------------|
-------------------------|
--8-7-4--8-7-4-3-2-------|
--6-5-2--6-5-2-1-0-------|


"Now listen to what the, preacher has to say"
------------------------------|
------------------------------|
------------------------------|
------------------------------|
--8-7-4--8-7---5-5-5-5-5------|
--6-5-2--6-5---3-3-3-3-3------|


"About life, but don't listen to what the"
------------------------|
------------------------|
------------------------|
------------------------|
--8-7-4--8-7-4-3-2------|
--6-5-2--6-5-2-1-0------|


"Man of faith has to"
--------------------|
--------------------|
--------------------|
--------------------|
--8-7-4--8-7--------|
--6-5-2--6-5--------|


"Say about petty details like death and despair"
---------------------------|
---------------------------|
---------------------------|
--------------------7-6----|
--8-7--8-7-4-5--8-7-5-4----|
--6-5--6-5-2-3--6-5--------|


"Haven't you heard yet? No one listens to anyone anyhow"
--------------------------------|
--------------------------------|
--------------------------------|
-------------------------7-6----|
--8-7--8-7--8-7-4-5--8-7-5-4----|
--6-5--6-5--6-5-2-3--6-5--------|

"Take that aimless aim and let it rip"
-------------------------------------|
-------------------------------------|
-------------------------------------|
-------------------------------------|
-4-4-5-5-8-8-7-7--4-4-5-5-8-8-7------|
-2-2-3-3-6-6-5-5--2-2-3-3-6-6-5------|


Tapping part (Figure out the rhythm, etc, yourself by listening to the song)
"Open fire when you hit the shore"
  T      I  R    T      I  R
-------------------------------------|
-------------------------------------|
-------------------------------------|
--12--0--6--8----12--0--6--8---------|
--12--0--6--8----12--0--6--8---------|
-------------------------------------|


"Relax, it's only the smell of some sea-men"
--------------------------------|
--------------------------------|
--------------------------------|
--------------------------------|
--8-7-4--8-7-4-3-2--------------|
--6-5-2--6-5-2-1-0--------------|


Tapping part (Figure out the rhythm, etc, yourself by listening to the song)
"Open fire when you hit the shore"
  T      I  R    T      I  R
-------------------------------------|
-------------------------------------|
-------------------------------------|
--12--0--6--8----12--0--6--8---------|
--12--0--6--8----12--0--6--8---------|
-------------------------------------|


--------------------------------|
--------------------------------|
--------------------------------|
--------------------------------|
--8-7-4--8-7-4-3-2--------------|
--6-5-2--6-5-2-1-0--------------|


"Fire!"
--------------|
--------------|
--------------|
--------------|
--8-7-4--8-7--|
--6-5-2--6-5--|


"Hand-me-down hamburger"
---------------------|
---------------------|
---------------------|
---------------------|
-4-4-5-5-8-8-7-7--5--|
-2-2-3-3-6-6-5-5--3--|
Tap to rate this tab
# A B C D E F G H I J K L M N O P Q R S T U V W X Y Z