Song name
# A B C D E F G H I J K L M N O P Q R S T U V W X Y Z

Lodger - Prefontaine tab

Intro/Verse

Lodger-HoneyMoon-Prefontaine

Guitar.1
E------------------------------------------------------------------------|
B------------------------------------------------------------------------|
G------------------------------------------------------------------------|    x6
D---------9-9-9-9-7-7-7-7--------------------9-9-9-9-7-7-7-7-------------|
A-------------------------10-10-10-10------------------------5-5-5-5-----|
E-7-7-7-7-----------------------------7-7-7-7----------------------------|

0:12

Guitar 2

Steve was a hell of a runner...
E
B
G
D-9
A-9  wait....
E-7

E-----------------------------------------|Dream son in law for american mothers...
B--------------------|--------------------|
G------------7-9-4---|7-9-----------------|
D----------9---------|9-----7-------------|
A-5-7----------------|--------------------|
E--------------------|--------------------|
Chorus
Guitar 1
E----------------|
B----------------|
G------------7---|
D-9-9-9-9--9-7---|  x3
A-9-9-9-9--9-5---|
E-7-7-7-7--7-----|


E-------------------------------------|
B-------------------------------------|
G---------7-7-7-7-9-9-9-9-12-12-12-12-|
D-9-9-9-9-7-7-7-7-9-9-9-9-12-12-12-12-|
A-9-9-9-9-5-5-5-5-7-7-7-7-10-10-10-10-|
E-7-7-7-7-----------------------------|

Guitar 2
                      x1
E-------------------------------------|---------------------------------|
B-------------------------------------|---------------------------------|
G-------------------------------------|---------------------------------|
D-------------------------------------|------------------------7-7------|
A---------5-5-5-5-7-7-7-7-10-10-10-10-|7-9-9-9-7-9-9-9-7-9-9-9-----9-9--| x2
E-7-7-7-7-----------------------------|---------------------------------|

And Tommorow I end the Solo...I wanna sleep;]  And Yes I'can't speak english
Tap to rate this tab
# A B C D E F G H I J K L M N O P Q R S T U V W X Y Z