Guitaretab - guitar tabs
Song name
# A B C D E F G H I J K L M N O P Q R S T U V W X Y Z
Home / L / Lodger / Fickle tab

Lodger - Fickle tab

-------------------------------------------------------------------------------
			     Fickle - Lodger
-------------------------------------------------------------------------------
Tabbed by: Coda1989
Email: coda@gmx.net

Tuning:EADGBe

I'm pretty sure about this tab because I saw Lodger yesterday live in Osnabrück and tabbed this
song by what I saw the lead guitarist playing on stage. I'm not 100% sure about the last part of 
the chorus, but if you can find out, what he's playing please mail me

Intro            					      	
e|--------------|
B|-B-------o----|
G|--a-----r-----|
D|---s---t------|
A|----s-n-------|
E|-----i--------|

Main Riff					      	
e|-----------------------------|
B|-----------------------------|
G|-2-2-2-2--2-2--2-2-2-2-2-2---|
D|-2-2-2-2--2-2--2-2-2-2-2-2---|
A|-0-3p0-3--3-0--0-3p0-3p0-0---|
E|-----------------------------|
[ Tab from: http://www.guitaretab.com/l/lodger/64706.html ]
Verse						       get progressively louder		
e|----------------------|-----------------------------|
B|--B----B----B----B----|-2-2-2-2--2-2--2-2-2-2-2-2---|
G|---a----a----a----a---|-2-2-2-2--2-2--2-2-2-2-2-2---|
D|----s----s----s----s--|-0-3-0-3--3-0--0-3-0-3-0-0---|
A|-----s----s----s----s-|-----------------------------|
E|----------------------|-----------------------------|
P.M.                      . . . .  . .  . . . . . . 

Chorus
e|-1-1-1-1-1-------------1-1-1-1-1-------------1-1-1-1-1-------------------------------|
B|-1-1-1-1-1-------------1-1-1-1-1-------------1-1-1-1-1-------------------------------|
G|-2-2-2-2-2-3-3-5-5-5-5-2-2-2-2-2-3-3-5-5-5-5-2-2-2-2-2-3-3-5-5-5-5-7-7-7-7-7-7-6-5---|
D|-3-3-3-3-3-3-3-5-5-5-5-3-3-3-3-3-3-3-5-5-5-5-3-3-3-3-3-3-3-5-5-5-5-7-7-7-7-7-7-6-5---|
A|-3-3-3-3-3-------------3-3-3-3-3-------------3-3-3-3-3-------------------------------|
E|-1-1-1-1-1-------------1-1-1-1-1-------------1-1-1-1-1-------------------------------|

Order

Intro 		 3x	
Main Riff 	 3x
Verse		 4x
Chorus		 1x
Main Riff 	 4x
Verse		 4x
Chorus		 2x
Main Riff P.M    4x
Main Riff	 8x
Chorus 		 2x
Main riff	 4x

that's it I hope you liked it and if you have any corrections please mail to coda@gmx.net


| p  pull-off
| ~  vibrato
| +  harmonic
| x  Mute note

www.lodger.tv <-- the official homepage of Lodger

===============================================================================
Related for Fickle tab