Guitaretab - guitar tabs
Song name
# A B C D E F G H I J K L M N O P Q R S T U V W X Y Z

Lodger - I Love Death tab

Tabbed by lodgerrocks
This tab is 100% correct, listen to the song and the tab will be easier to understand.

Intro:
(clean)
|---------------------------------------------|
|-10-10-10-10--8-8-8-8--6-6-6-6--5-5-5-5------|
|--7--7--7--7--7-7-7-7--7-7-7-7--6-6-6-6------|
|---------------------------------------------|
|---------------------------------------------|
|---------------------------------------------|

Verse (method 1):          (light distortion)
|---------------------------------------------|
|---------------------------------------------|
|-7-7-7-7--5-5-5-5----------------------------|
|-7-7-7-7--5-5-5-5--3-3-3-3--2-2-2-2----------|
|-5-5-5-5--3-3-3-3--3-3-3-3--2-2-2-2----------|
|-------------------1-1-1-1--0-0-0-0----------|

	Both methods sound about the same.

Verse (method 2):          (light distortion)
|---------------------------------------------|
|---------------------------------------------|
|---------------------------------------------|
|-9-9-9-9--7-7-7-7----------------------------|
|-7-7-7-7--5-5-5-5--5-5-5-5--3-3-3-3----------|
|-------------------3-3-3-3--1-1-1-1----------|

Chorus: (light distortion)
|---------------------------------------------|
|---------------------------------------------|
|---------------5-----------------------------|
|-3------7------5-------5---------------------|
|-3------7------3-------5---------------------|
|-1------5--------------3---------------------|
[ Tab from: http://www.guitaretab.com/l/lodger/65432.html ]
Interlude:
|--------------------------------------------|
|--------------------------------------------|
|--------------------------------------------|
|--8-8-8-8-8-8-8-8--7-7-7-7-7-7-7-7----------|
|--8-8-8-8-8-8-8-8--7-7-7-7-7-7-7-7----------|
|--6-6-6-6-6-6-6-6--5-5-5-5-5-5-5-5----------|

Solo 1:
|---------------------------------------------|
|---------------------------------------------|
|---------------------------------------------|
|---------------------------------------------|
|-5---3-----------5---3---8--7----------------|
|---------3---1-------------------------------|

Solo 2
|---------------------------------------------|
|---------------------------------------------|
|---------------------------------------------|
|---------------------------------------------|
|-7-5-3--5--7-4---7-5-3--2-5--7-4-------------|
|---------------------------------------------|

|---------------------------------------------|
|---------------------------------------------|
|---------------------------------------------|
|---------------------------------------------|
|-7-5-3-2-7-5-3-2-7-5-3-2--7---7---5---5------|
|----------------------------7---7---5---5----|

Outro Lead:
|---------------------------------------------|
|---------------------------------------------|
|---------------------------------------------|
|---------------------------------------------|
|---------------------*Let ring*--------------|
|-6---5--4---3--2-1-0-------------------------|

Outro Rythym:
|--------------------------------------------------------------------------------------|
|--------------------------------------------------------------------------------------|
|--------------------------------------------------------------------------*Let ring*--|
|--8-8-8-8-8-8-8-8--7-7-7-7-7-7-7-7--6-6-6-6-6-6-6-6--5-5-5-5--4-4--3-3--2-------------|
|--8-8-8-8-8-8-8-8--7-7-7-7-7-7-7-7--6-6-6-6-6-6-6-6--5-5-5-5--4-4--3-3--2-------------|
|--6-6-6-6-6-6-6-6--5-5-5-5-5-5-5-5--4-4-4-4-4-4-4-4--3-3-3-3--2-2--1-1--0-------------|
Related for I Love Death tab