Song name
# A B C D E F G H I J K L M N O P Q R S T U V W X Y Z

Lofofora - Accelere tab

Intro:

e|---------------------|
B|---------------------|
G|---------------------|
D|---------------------|
A|--5-5-5-6-6-6-6------|
E|--3-3-3-4-4-4-4------|

Couplets

e|---------------------|
B|---------------------|
G|---------------------|
D|--------------5b-----|
A|--5-5-5-6-6-6--------|
E|--3-3-3-4-4-4--------| 

e|---------------------|
B|---------------------|
G|---------------------|
D|---------------------|
A|--5-5-5-6-6-6-3------|
E|--3-3-3-4-4-4-1------|

Pre-chorus:

e|------------------------------------|
B|------------------------------------|
G|------------------------------------|
D|--5-5-5-5-5-5-5-5-5-5-5-5-5-5-5-5---|
A|--3-3-3-3-3-3-3-3-3-3-3-3-3-3-3-3---|
E|----------0-0-0-0---------0-0-0-0---|

Chorus:

e|--------------------------------------|
B|--------------------------------------|
G|----8-10-12-5-8-----------------------|
D|----x-x--x--x-x-----------------------|
A|--5-6-8--10-3-6-6-6-6-3-3-1-1---------|
E|--3-------------4-4-4-1-1-1-1---------|


e|--------------------------------------|
B|--------------------------------------|
G|----8-10-12-5-8-----------------------|
D|----x-x--x--x-x-----------------------|
A|--5-6-8--10-3-6-6-6-6-1-1-3-3---------|
E|--3-------------4-4-4-1-1-1-1---------|

End of the song:

e|------------------------|
B|------------------------|
G|------------------------|
D|--------------5-5-------|
A|--5-5-6-6-1-1-3-3-3-3---|
E|--3-3-4-4-1-1-----1-1---|

Hope you enjoy it
Tap to rate this tab
# A B C D E F G H I J K L M N O P Q R S T U V W X Y Z