Song name
# A B C D E F G H I J K L M N O P Q R S T U V W X Y Z

Lofofora - Le Fond Et La Forme tab

Hey everyone! Here's a cool song from lofofora. The guitar starts 1min. exactly after
beginning of the song, after the drum solo.

Intro:

E---------------------------------------------------------------------|
B---------------------------------------------------------------------|
G------------------------------------------------------2-2-2-2-2-2-2--|
D---4--4-2-25--5-----4-4-4-42-25--5----X4--then:-------2-2-2-2-2-2-2--|
A---4--4-2-25--5-----4-4-4-42-25--5--------------------0-0-0-0-0-0-0--|
E---2--2-0-3---3-----2-2-2-20-3---3-----------------------------------|

Verse:

E--------------------------------------------------------------------------------------|
B-------(P-M)--------(----P-M----)-----------------------------------------------------|
G--------------------------------------------------------------------------------------|
D---4--4-2-2-5--5-----4-4-4-4-2-2-5--5----X4-------------------------------------------|
A---4--4-2-2-5--5-----4-4-4-4-2-2-5--5-------------------------------------------------|
E---2--2-0-0-3--3-----2-2-2-2-0-0-3--3-------------------------------------------------|

Pre-Chorus:

E-------------------------------------------------|
B-------------------------------------------------|
G--------------------------------2-2-2-2-2-2-2-2--|
D---4-4-4-45-5-5-5---X3--then----2-2-2-2-2-2-2-2--|
A---4-4-4-45-5-5-5---------------0-0-0-0-0-0-0-0--|
E---2-2-2-23-3-3-3--------------------------------|

Chorus:

e-------------------------|
B-------------------------|
G------------2-2-2--------|
D---4-4344---2-2-2----X4--|
A---4-4544---0-0----------|
E---2-2322----------------|

Ok that's it! Have fun it's an easy and very cool song!
Tap to rate this tab
# A B C D E F G H I J K L M N O P Q R S T U V W X Y Z