Song name
# A B C D E F G H I J K L M N O P Q R S T U V W X Y Z

Lofofora - Justice Pour Tous tab

   Intro et couplets 
e-|-------------------------------------------------------------| 
B-|-------------------------------------------------------------| 
G-|-------------------------------------------------------------| 
D-|-5-5-5-5-2-2-2-2-5-5-5-5-2-2-2-2-5-5-5-5-2-2-2-2-------------| 
A-|-3-3-3-3-0-0-0-0-3-3-3-3-0-0-0-0-3-3-3-3-0-0-0-0-2-2-2-2-2-2-| 
E-|-------------------------------------------------0-0-0-0-0-0-| 
 
   Refrain (Justice, justice...) 
e-|-----------------------------| 
B-|-----------------------------| 
G-|-----------------------------| 
D-|-----------------------------|JUSTICE POUR TOUS! 
A-|-2/3/2/3/2/3/2/3/2/3/2/3/2/3-| 
E-|-0-0-0-0-0-0-0-0-0-0-0-0-0-0-| 
Tap to rate this tab
# A B C D E F G H I J K L M N O P Q R S T U V W X Y Z