Song name
# A B C D E F G H I J K L M N O P Q R S T U V W X Y Z

Logan - When I Get Down tab

-------------------------------------------------------------------------------
			     When i get down - Logan
Tabbed by:Steve
Email:

Tuning: Drop C
http://www.logan-net.com/

INTRO

e|--------------------------------------------3--------------------------------|
B|---------------7--------------------------------3----3-----------------------|
G|-----------9-------9----9-------------5-----------5--------------------------|
D|-------9-------------9------------5------------------------------------------|
A|---7--------------------------3----------------------------------------------|
E|-----------------------------------------------------------------------------|

e|------------------------------------------5--------------------------------|
B|--------------5-------------------------------5-----5----------------------|
G|----------7------7----7-------------7------------7-------------------------|
D|-------7-----------7-------------7-----------------------------------------|
A|---5--------------------------5--------------------------------------------|
E|---------------------------------------------------------------------------|
      Repeat the Intro 5 times, when it is played for the second time the bass, vocals
rythem guitar come in, the following chords are what are played behind the intro from
the vocals come in.


e|---------------------------------------------------------------------------|
B|---------------------------------------------------------------------------|
G|---9-------------5-----------7-----------7---------------------------------|
D|---9-------------5-----------7-----------7---------------------------------|
A|---7-------------3-----------5-----------5---------------------------------|
E|---7-------------3-----------5-----------5---------------------------------|
      Play this up until the breakdown, the breakdown is actually just the  rythem chords.


When i get down   When i get down  When i get down
e|---------------------------------------------------------------------------|
B|---------------------------------------------------------------------------|
G|---9-------------5-----------7-----------7---------------------------------|
D|---9-------------5-----------7-----------7---------------------------------|
A|---7-------------3-----------5-----------5---------------------------------|
E|---7-------------3-----------5-----------5---------------------------------|

Verse 1

e|---------------------------------------------------------------------------|
B|---------------------------------------------------------------------------|
G|---------------------------------------------------------------------------|
D|---------------------------------------------------------------------------|
A|---7h10--9 9--9-10--9 9--9 9--10-----7h10--9 9--9-10--9 9--9 9--10---------|
E|---------------------------------------------------------------------------|

e|---------------------------------------------------------------------------|
B|---------------------------------------------------------------------------|
G|---------------------------------------------------------------------------|
D|---------------------------------------------------------------------------|
A|---7h10--9 9--9--10-9 9--9 9---10-----7h10--9 9- 9-10--9 9-9h10--9\7-------|
E|---------------------------------------------------------------------------|
     This riff is played twice before the vocals come in, then it is played up untill
chorus, the whole time the rythem playin the chords, you figgure out the strumming pattern.


 Fill into chorus
e|---------------------------------------------------------------------------|
B|----5h7---7h8--8/10---10/12------------------------------------------------|
G|---------------------------------------------------------------------------|
D|---------------------------------------------------------------------------|
A|---------------------------------------------------------------------------|
E|---------------------------------------------------------------------------|


 Chorus

When i get down   When i get down  When i get down
e|----------------------------------------------------------------------------|
B|----------------------------------------------------------------------------|
G|---9-------------5-----------7-----------5--5--5--5h7-----------------------|
D|---9-------------5-----------7-----------5--5--5--5h7-----------------------|
A|---7-------------3-----------5-----------5--5--5--5-------------------------|
E|---7-------------3-----------5-----------5--5--5--5-------------------------|

 Again figgure out the stumming pattern


 verse 2
e|---------------------------------------------------------------------------|
B|---------------------------------------------------------------------------|
G|--9--9--9--9----5--5--5--5----7--7--7--7----7--7--7--7---------------------|
D|--9--9--9--9----5--5--5--5----7--7--7--7----7--7--7--7---------------------|
A|--7--7--7--7----3--3--3--3----5--5--5--5----5--5--5--5---------------------|
E|--7--7--7--7----3--3--3--3----5--5--5--5----5--5--5--5---------------------|

 back into this riff

|-----------------------------------------------------------------------------|
B|----------------------------------------------------------------------------|
G|----------------------------------------------------------------------------|
D|----------------------------------------------------------------------------|
A|---7h10--9 9--9-10--9 9--9 9--10-----7h10--9 9--9-10--9 9--9 9--10----------|
E|----------------------------------------------------------------------------|

e|---------------------------------------------------------------------------|
B|---------------------------------------------------------------------------|
G|---------------------------------------------------------------------------|
D|---------------------------------------------------------------------------|
A|---7h10--9 9--9--10-9 9--9 9---10-----7h10--9 9- 9-10--9 9-9h10--9\7-------|
E|---------------------------------------------------------------------------|


Fill into chorus
e|---------------------------------------------------------------------------|
B|----5h7---7h8--8/10---10/12------------------------------------------------|
G|---------------------------------------------------------------------------|
D|---------------------------------------------------------------------------|
A|---------------------------------------------------------------------------|
E|---------------------------------------------------------------------------|


Chorus

When i get down   When i get down  When i get down
e|----------------------------------------------------------------------------|
B|----------------------------------------------------------------------------|
G|---9-------------5-----------7-----------5--5--5--5h7-----------------------|
D|---9-------------5-----------7-----------5--5--5--5h7-----------------------|
A|---7-------------3-----------5-----------5--5--5--5-------------------------|
E|---7-------------3-----------5-----------5--5--5--5-------------------------|


Solo

e|---------------------------------------------------------------------------|
B|--15b--15p12---8--10p8---12b--12b------------------------------------------|
G|-----------------------------------12----9/12---9---12b---9h12p9---7h9p7---|
D|---------------------------------------------------------------------------|
A|---------------------------------------------------------------------------|
E|---------------------------------------------------------------------------|

e|---------------------------------------------------------------------------|
B|--5-5--t12 5h7p5--t12 5h7p5--t12 5h7p5--t12 5h7p5--t12 5h7p5---t12 5h7p5---|
G|---------------------------------------------------------------------------|
D|---------------------------------------------------------------------------|
A|---------------------------------------------------------------------------|
E|---------------------------------------------------------------------------|


e|---------------------------------------------------------------------------|
B|--t12 5h7p5--t12 5h7p5---t12 7h8p7---t12 7h8p7---t12 7h8p7---t12 7h8p7-----|
G----------------------------------------------------------------------------|
D|---------------------------------------------------------------------------|
A|---------------------------------------------------------------------------|
E|---------------------------------------------------------------------------|

e|----------------------------------------------------------------------------|
B|---t12 7h8p7----t12 7h8p7---t12 7h8p7---t12 7h8p7----t15 7h10p7---t15 7h8p7-|
G|----------------------------------------------------------------------------|
D|----------------------------------------------------------------------------|
A|----------------------------------------------------------------------------|
E|----------------------------------------------------------------------------|


e|---------------------------------------------------------------------------|
B|---t15 7h10p7---t15 7h8p7---t15 7h10p7--t15 7h8p7--t15 7h10p7---t15 7h8p7--|
G|---------------------------------------------------------------------------|
D|---------------------------------------------------------------------------|
A|---------------------------------------------------------------------------|
E|---------------------------------------------------------------------------|

e|---------------------------------------------------------------------------|
B|---12b--12---12b--8h10p8--7h8p7---5--5*------------------------------------|
G|---------------------------------------------------------------------------|
D|---------------------------------------------------------------------------|
A|---------------------------------------------------------------------------|
E|---------------------------------------------------------------------------|

Ending

 Yeahhhaa      Yeahhhaa     Yeahhhaa
e|---------------------------------------------------------------------------|
B|---------------------------------------------------------------------------|
G|---9-------------5-----------7-----------7---------------------------------|
D|---9-------------5-----------7-----------7---------------------------------|
A|---7-------------3-----------5-----------5---------------------------------|
E|---7-------------3-----------5-----------5---------------------------------|


  i will make it down, i will kiss the ground, pick you up again when i get
e|---------------------------------------------------------------------------|
B|---------------------------------------------------------------------------|
G|---9-------------5-----------7-----------7---------------------------------|
D|---9-------------5-----------7-----------7---------------------------------|
A|---7-------------3-----------5-----------5---------------------------------|
E|---7-------------3-----------5-----------5---------------------------------|
    Down
e|----------------------------------------------------------------------------|
B|----------------------------------------------------------------------------|
G|----9-----------------------------------------------------------------------|
D|----9-----------------------------------------------------------------------|
A|----7-----------------------------------------------------------------------|
E|----7-----------------------------------------------------------------------|


There you go..... Wicked band, Wicked song. strumming pattern is pritty easy, changes at
end a bit though. I know this is right because me and my band were deturmend to cover
song, but the tab was nowhere, so we listend to the song, listend for every detail and 
it, so am sure its right.

| /  slide up
| \  slide down
| h  hammer-on
| p  pull-off
| ~  vibrato
| *  harmonic
| x  Mute note
  t  Tap
===============================================================================
Tap to rate this tab
# A B C D E F G H I J K L M N O P Q R S T U V W X Y Z