Song name
# A B C D E F G H I J K L M N O P Q R S T U V W X Y Z

Logh - Smoke Will Lead You Home tab

Smoke Will Lead You Home


Capo 2 - all notes relevant to capo eg: what would be fret 2 would now be 0.


Intro.


E]------------------------------------------------|
B]------------------------------------------------|
G]---------------0---------------------------0----|
D]----------0-------0-------s-----------0---------|
A]-------9---------------9--s--(5)----------------|
E]----7--7-----7------7--7--s--(5)--------5-------|


The rest of the intro is all based around that, add a few notes here and there from 
chords.


Verse (No Singing)

There are two guitars. This is the main one that is the best to sing along to.

It's not 100% but it works!


E]---------  ---------  ---------  ---------|
B]----0----  ----0----  ----0----  ----0----|
G]----6----  ----7----  ----6----  ----7----|
D]----7----  ----7----  ----4----  ----4----|
A]----0----  ----0----  ----0----  ----0----|
E]----5----  ----5----  ----5----  ----5----|


Keep that going until the singing.

Verse (Singing)


1.           2.         3.         4.         5.

E]---------  ---------  ---------  ---------  ---------|
B]---------  ---------  ---------  ---------  ---------|
G]----7----  ----6----  ----6----  ----7----  ----6----|
D]----0----  ----9----  ----7----  ----7----  ----4----|
A]----9----  ----0----  ----0----  ----0----  ----0----|
E]----7----  ----7----  ----5----  ----5----  ----5----|

   1
My God I'm tired
   2                       3
I'm tired and I want to go home
      4
She's warm like fire
    5                   3
The smoke will lead you home

Something along those lines.

End on song 4.


Tabbed by Chris Pinchbeck

www.myspace.com/joyboxofficial

www.logh.se
Tap to rate this tab
 
# A B C D E F G H I J K L M N O P Q R S T U V W X Y Z