Song name
# A B C D E F G H I J K L M N O P Q R S T U V W X Y Z

Logh - Yellow Lights Mean Slow Down Not Speed Up tab

Yellow Lights Mean Speed Up Not Slow Down


Intro.

B]------------3------  ------------6------|
G]--------5-----5----  --------8-----8----|
D]------5---5-----5--  ------8---8-----8--|
A]----3--------------x2----6--------------|x2
E]-------------------  -------------------|

B]------------8---------  ------------11--------|
G]--------10-----10-----  --------12----12------|
D]------10---10-----10--  ------12---12-----12--|
A]----8-----------------x2----10----------------|x2
E]----------------------  ----------------------|

Verse


E]---------  ---------|
B]---------  ---------|
G]---------  ---------|
D]----5----  ----8----|
A]----3----x8----6----|x8
E]---------  ---------|

Riff:


E]------------------------------  -------------------------------------|
B]------------------------------  -------------------------------------|
G]----5-s-7----8-s-7-s-3-s-5----  ----5-s-7--s-3--s-10s12s7-s-15s12----|
D]------------------------------  -------------------------------------|
A]------------------------------x2-------------------------------------|
E]------------------------------  -------------------------------------|


End on Solo. Just make one up cos its impossible to figure it out!


Tabbed by Chris Pinchbeck

www.myspace.com/joyboxofficial

www.logh.se
Tap to rate this tab
# A B C D E F G H I J K L M N O P Q R S T U V W X Y Z