Song name
# A B C D E F G H I J K L M N O P Q R S T U V W X Y Z

Logobi Gt - Gater Le Coin tab

http://logobigt.skyrock.com/

Accords: G#m E F# G#m


E |--------------------7-----------------4-------------|
B |-----------------9--------------5-------------------|
G |-----------8----------------------------------------|
D |----------------------------------------------------|
A |--6-----------------------2-------------------------|
E |----------------------------------------------------|


--------------------6-----------------4------------|||
-----------------7--------------4------------------|||
-----------6--------------------------------------o|||
--------------------------------------------------o|||
--4-----------------------6------------------------|||
---------------------------------------------------|||
Tap to rate this tab
# A B C D E F G H I J K L M N O P Q R S T U V W X Y Z