Song name
# A B C D E F G H I J K L M N O P Q R S T U V W X Y Z

Logos - Beautiful Disguise tab

----------------------------------------------------------------------------
			     Beautiful Disguise - LOGOS
----------------------------------------------------------------------------
Tabbed by: bluebird1fan
Email: musicreunion88@yahoo.com

Tuning: Standard eBGDAE

e|-----------------------------------------------------------------------|
B|----------3---------------3---------------3---------------3------------|
G|------2---------------2---------------0---------------0----------------|
D|--0-----------0---3-----------3---2-----------2----------------2-------|x6
A|--------------------------------------------------3--------------------|
E|-----------------------------------------------------------------------|
Tap to rate this tab
 
# A B C D E F G H I J K L M N O P Q R S T U V W X Y Z