Guitaretab - guitar tabs
Song name
# A B C D E F G H I J K L M N O P Q R S T U V W X Y Z

Logos - Cuando Asecha La Maldad tab

Highlighted       Show chord diagrams
La primera Cancion de logos en Guitar pro! Espero que los fans de LOGOS sigan subiendo 
de esta espectacular banda!
Acepto cualquier correción

Intro (1): X2
e|----------------------------------------------------------------------|
B|----------------------------------------------------------------------|
G|----------------------------------------------------------------------|
D|--9--9-------------------9--8----------8----------------8--9----------|
A|--7--7-------------------7--7----------7----------------7--7----------|
E|--------0--0-0-0-0--0-0--------0--0-0-----0-0-0-0--0-0--------0--0-0--|

e|------------------------------------------------------------------|
B|------------------------------------------------------------------|
G|------------------------------------------------------------------|
D|--9-------------------9--8----------8-----------------------------|
A|--7-------------------7--7----------7--------------------1--------|
E|-----0--0-0-0-0--0-0--------0--0-0------0--0-0-0---0-2-3---3-2-0--|

Intro (2): X2
e|----------------------------------------------------------|
B|----------------------------------------------------------|
G|---------------------------------------1/2^0--------------|
D|--2--2---------------2--3----------3---------3^0-2-3-0-3--|
A|--0--0--0--0-0-0-0---0--0--0--0-0--0----------------------|
E|----------------------------------------------------------|

e|------------------------------------------------------|
B|------------------------------------------------------|
G|------------------------------------------------------|
D|--2--2---------------2--3----------3---------2^3-0^2--|
A|--0--0--0--0-0-0-0---0--0--0--0-0--0-------0----------|
E|---------------------------------------1-0------------|

Intro (3):
e|------------------------------------------------+-----------------------------------------|
B|------------------------------------------------+-----------------------------------------|
G|-------------------3^0---------------------2----+------------------3^0--------------------|
D|--/4-5-2-4---2-4-5------4-2--2/5--4^5^4\2----2--+--/4-5-2-4--2-4-5-----4-2-2/5-5-5--5-5-5-|
A|------------------------------------------------+-----------------------------------5-5-5-|
E|------------------------------------------------+-----------------------------------3-3-3-|

e|----------------------6---------------5---------------------6-----------------------|
B|--5-8-7---8-5-7---7-8---8-7-5-5/8-7^5---5--/7--8-5-7--5-7-8---8-7-5-5/8-8-8---------|
G|------------------------------------------------------------------------------------|
D|-----------------------------------------------------------------------------5-5-5--|
A|-----------------------------------------------------------------------------5-5-5--|
E|-----------------------------------------------------------------------------3-3-3--|





Em      C             D
En la terrible madrugada
Em             C   A#5
se palpita la muerte,
Em        C         D
la calle respira violencia
Em               C      A#5
del infierno del hombre,
*1
que muere y mata
por sus ideales,
tratando de imponer
una razón que jamás
tuvo dueño.
[ Tab from: http://www.guitaretab.com/l/logos/97319.html ]
*1: B5             que muere y...
e|---------------------------------------|X2
B|---------------------------------------|
G|--4-4-4--4-4-4-------------------------|
D|--4-4-4--4-4-4---------5-4-5-----7-----|
A|--2-2-2--2-2-2------/3--------5--5--7--|
E|---------------12\------------3-----5--|

e|------------------------------------------------------------|
B|------------------------------------------------------------|
G|--4-4-4--4-4-4----------------------------------------------|
D|--4-4-4--4-4-4---------5-4-5-----------------------------2--|
A|--2-2-2--2-2-2------/3---------3-3^2-0---0---------------2--|
E|---------------12\---------------------3---2-3-2--2/3\2--0--|
                        Cuando asecha la maldad...
e|------------------------------------------------------------------------------------|
B|------------------------------------------------------------------------------------|
G|------------------------------------------------------------------------------------|
D|--------------------------------------3----------------------------------------3----|
A|------------------2/3--2--------------1-----2/3--2------------------2/3--------1-3--|
E|--0-0-0-0--0-0-0--0/1--0---0-0-0-0--0-------0/1--0--0-0-0-0--0-0-0--0/1--0-0-0---1--|

En necio busca
en las tinieblas
sus verdades oscuras,
y el tonto vive de su engaño
sin deseos de escapar,
quemando el sueño
de los inocentes,
urbanizando el mal
sobre cimientos
de barro y de muerte.

Como intro (2)
A / F
El odio que vive
A / F
en el corazón de la ciudad
A / F
se enciende
A / F
con tal fuerza,
A / F
que ni el dolor
A / F
que nos castiga
F / G
lo comprende

e|---------------------------------------------------------------------------------|
B|---------------------------------------------------------------------------------|
G|---------------------------------------------------------------------------------|
D|--/4--5-4--2-0-2---------------------------2---------/4--5-4^2-0-2---------------|
A|------------------2-5-4-2--1-2-1-----------2-----------------------2-5-5^4--4^2--|
E|---------------------------------3-2--/3-2-0--3\2^0------------------------------|

e|-------------------------------------------------------------------------|
B|--/7-8-10-10^8-7---8-8^7-5---7-5---3-5-5^3----------------------------0--|
G|---------------------------------6------------------------------------0--|
D|----------------------------------------------2-0-2-------------------2--|
A|--------------------------------------------0-------/4---5-4-2---2-4--2--|
E|---------------------------------------------------------------5------0--|

En la terrible madrugada
se palpita la muerte,
la calle respira violencia
del infierno del hombre,
que muere y mata
por sus ideales,
tratando de imponer
una razón que jamás
tuvo dueño.

COMO INTRO (1)
e|----------------------------------------|
B|--/12~---12-11-11^8-7-5---5-7-8-7/(8)~--|
G|----------------------------------------|
D|----------------------------------------|
A|----------------------------------------|
E|----------------------------------------|
cuando asecha la maldad...
e|--11/(13)~-------------------------------|
B|-------------12^13^12\10--%--%--10/(12)--|
G|-----------------------------------------|
D|-----------------------------------------|
A|-----------------------------------------|
E|-----------------------------------------|

cuando asecha la maldad...
cuando asecha la maldad...
cuando asecha la maldad...
Related for Cuando Asecha La Maldad tab
Advertisement will be closed in 10 seconds