Song name
# A B C D E F G H I J K L M N O P Q R S T U V W X Y Z

Loikaemie - Good Night White Pride tab

Loikaemie
Good Night White Pride
III (2002)

Tuning: standard (eADGBE)

Intro
E-------------------------------------|
A-------------------------------------|
D-------------------------------------|
G-------------------------------------|
B------2---------2--------2---------7-|
e--0-0---0-5-0-4-0----0-0---0-5-0-4-5-|

Riff 1
E----------------|
A----------------|
D----------------|
G----------------|
B------2---------|
e--0-0---0-5-0-4-|

Riff 2
E----------------------------------------------------------|
A----------------------------------------------------------|
D----------------5--5--x-x-x-x---------------7--7--x-x-x-x-|
G--2--2--x-x-x-x-5--5--x-x-x-x-5--5--x-x-x-x-7--7--x-x-x-x-|
B--2--2--x-x-x-x-3--3--x-x-x-x-5--5--x-x-x-x-5--5--x-x-x-x-|
e--0--0--x-x-x-x---------------3--3--x-x-x-x---------------|

E----------------------------------------------------------|
A----------------------------------------------------------|
D----------------5--5--x-x-x-x---------------4--4--x-x-x-x-|
G--2--2--x-x-x-x-5--5--x-x-x-x-5--5--x-x-x-x-4--4--x-x-x-x-|
B--2--2--x-x-x-x-3--3--x-x-x-x-5--5--x-x-x-x-2--2--x-x-x-x-|
e--0--0--x-x-x-x---------------3--3--x-x-x-x---------------|

Riff 3
E---------------------------------|
A---------------------------------|
D----------5---------------7------|
G--2-------5 (x7)--5-------7------| (x7)
B--2 (x7)--3-------5 (x7)--5------|
e--0---------------3--------------|

E---------------------------------|
A---------------------------------|
D----------5---------------4------|
G--2-------5 (x7)--5-------4------| (x7)
B--2 (x7)--3-------5 (x7)--2------|
e--0---------------3--------------|

Riff 4
E--(x8)----|
A--/--\----|
D----------|
G--2--2----|
B--2--2----|
e--0--0----|
 PM----|

Riff 5
E--------------(x4)-|
A--------------/--\-|
D-------------------|
G--2-------2---2--2-|
B--2 (x2)--2---2--2-|
e--0-------0---0--0-|
 PM-|        PM----|

Order:
Intro  (x2)
Riff 1 (x4)
Riff 2 (x1)
Riff 3 (x2)
Riff 1 (x4)
Riff 2 (x1)
Riff 3 (x2)
Riff 4 (x1)
Riff 5 (x4)
Riff 3 (x1)
Riff 4 (x1)
Riff 5 (x12)

~By Warlord_Rip~
Tap to rate this tab
 
# A B C D E F G H I J K L M N O P Q R S T U V W X Y Z