Song name
# A B C D E F G H I J K L M N O P Q R S T U V W X Y Z

Lokua Kanza - Youll Never Know tab

This is one of my favourite song, by Lokua Kanza. It is not the original version 
but I like this blues rhythm   
Comments and suggestions: abaa_frdric@yahoo.fr    

Am                                    Dm                                 Am   
E||-----------------0----|--------------------------|-------1------------------|
B||------------1---------|--(1)---------------------|--3---------(3)-----------|
G||-------2--------------|---------(2)---------2----|-------------------(2)----|
D||--2-------------------|----------------0---------|--------------------------|
A||----------------------|--------------------------|--------------------------|
E||----------------------|--------------------------|--------------------------|

|-----------------0----|
|------------1---------|
|-------2--------------|
|--2-------------------|
|----------------------|
|----------------------|


                          Am   E     
     
-----------------------|--0----0----||
--(1)------------------|--1----0----||
---------(2)-----------|--2----1----||
----------------(2)----|--2----2----||
-----------------------|-------2----||
-----------------------|------------||


You'll never know, how much I miss you
My babe
You'll never know, how much I care

Yo ozali moyi na ngaļ
Fololo na ngaļ ya talo
Kotika ngaļ te soki otiki ngaļ
Na kowa

You'll never know, how much I miss you
My babe
You'll never know, how much I love you

Spoken voice :
I love you
You are so far from me
I miss you and I love you

Yo ozali moyi na ngaļ
Fololo na ngaļ ya talo
Kotika ngaļ te soki otiki ngaļ
Na kowa

You'll never know, how much I miss you
You'll never know, how much I love you
You can't imagine how much I care for you
Oh yes I do I love yo wa ngaļ

www.lokua-kanza.com
Tap to rate this tab
# A B C D E F G H I J K L M N O P Q R S T U V W X Y Z