Song name
# A B C D E F G H I J K L M N O P Q R S T U V W X Y Z

Lola Ray - Automatic Girl tab

i noticed that the other tabs were either incorrect or a little faulty so heres my 
to the others and in the order of the song

Intro
e|--------------------------|
B|--------------------------|
G|--2-2--5/6-6--7-7---------|
D|--2-2--5/6-6--7-7---------|    2x
A|--0-0--3/4-4--5-5---------|
E|--------------------------|

Verse (palm mute)
e|---------------------------------------|
B|---------------------------------------|
G|---------------------------------------|
D|--7------5-------3------5--------------|    4x
A|--7-(8x)--5-(8x)--3-(8x)--5-(8x)-------|
E|--5------3-------1------3--------------|

PreChorus
e|------------------------------|
B|------------------------------|
G|------------53667777----------|
D|--7-7--5-5--53667777----------|    1x
A|--7-7--5-5--33445555----------|
E|--5-5--3-3--------------------|

Verse2
e|----------------------------------------|
B|----------------------------------------|
G|----------------------------------------|
D|--7------5-------3------5---------------|     1x
A|--7-(4x)--5-(4x)--3-(4x)--5-(4x)--------|
E|--5------3-------1------3---------------|

PreChorus
e|-------------------------------|
B|-------------------------------|
G|------------53667777-----------|
D|--7-7--5-5--53667777-----------|     1x
A|--7-7--5-5--33445555-----------|
E|--5-5--3-3---------------------|

Chorus
e|------------------------------------------------------------|
B|------------------------------------------------------------|
G|------------------------------------------------------------|
D|-10-----5-----9------7-----10-----8------10-----------------|       1x
A|-10-(8x)-5-(8x)-9-(8x)-7-(8x)-10-(8x)-8-(8x)-10-(16x)-------|
E|--8------3-----7-----5------8------6------8-----------------|

Intro
e|--------------------------|
B|--------------------------|
G|--2-2--5/6-6--7-7---------|
D|--2-2--5/6-6--7-7---------|    2x
A|--0-0--3/4-4--5-5---------|
E|--------------------------|

Verse (palm mute)
e|---------------------------------------|
B|---------------------------------------|
G|---------------------------------------|
D|--7------5-------3------5--------------|    4x
A|--7-(8x)--5-(8x)--3-(8x)--5-(8x)-------|
E|--5------3-------1------3--------------|

PreChorus
e|------------------------------|
B|------------------------------|
G|------------53667777----------|
D|--7-7--5-5--53667777----------|    1x
A|--7-7--5-5--33445555----------|
E|--5-5--3-3--------------------|

Verse2
e|----------------------------------------|
B|----------------------------------------|
G|----------------------------------------|
D|--7------5-------3------5---------------|     1x
A|--7-(4x)--5-(4x)--3-(4x)--5-(4x)--------|
E|--5------3-------1------3---------------|

PreChorus
e|-------------------------------|
B|-------------------------------|
G|------------53667777-----------|
D|--7-7--5-5--53667777-----------|     1x
A|--7-7--5-5--33445555-----------|
E|--5-5--3-3---------------------|

Chorus
e|------------------------------------------------------------|
B|------------------------------------------------------------|
G|------------------------------------------------------------|
D|-10-----5-----9------7-----10-----8------10-----------------|       1x
A|-10-(8x)-5-(8x)-9-(8x)-7-(8x)-10-(8x)-8-(8x)-10-(16x)-------|
E|--8------3-----7-----5------8------6------8-----------------|

Bridge (Lead)
e|----------------------------|------------------------------------|
B|----------------------------|------------------------------------|
G|--7-----6------9-----6-----|--7-----6------4-----6---------------|
D|--7-(6x)-6-(6x)-9-(6x)-6-(6x)-|--7-(6x)-6-(6x)-4-(6x)-6-(6x)-----|
A|--5-----4------7-----4-----|--5-----4------2-----4---------------|
E|----------------------------|------------------------------------|

Bridge (Rythm) play on the second part of lead bridge
e|----------------------------------|
B|----------------------------------|
G|--7-----6------4-----6------------|
D|--7-(6x)-6-(6x)-4-(6x)-6-(6x)-----|
A|--5-----4------2-----4------------|
E|----------------------------------|

Intro
e|--------------------------|
B|--------------------------|
G|--2-2--5/6-6--7-7---------|
D|--2-2--5/6-6--7-7---------|    2x
A|--0-0--3/4-4--5-5---------|
E|--------------------------|

Verse
e|---------------------------------------|
B|---------------------------------------|
G|---------------------------------------|
D|--7------5-------3------5--------------|    2x
A|--7-(8x)--5-(8x)--3-(8x)--5-(8x)-------|
E|--5------3-------1------3--------------|

PreChorus
e|------------------------------|
B|------------------------------|
G|------------53667777----------|
D|--7-7--5-5--53667777----------|    1x
A|--7-7--5-5--33445555----------|
E|--5-5--3-3--------------------|

Verse2
e|----------------------------------------|
B|----------------------------------------|
G|----------------------------------------|
D|--7------5-------3------5---------------|     1x
A|--7-(4x)--5-(4x)--3-(4x)--5-(4x)--------|
E|--5------3-------1------3---------------|

PreChorus
e|-------------------------------|
B|-------------------------------|
G|------------53667777-----------|
D|--7-7--5-5--53667777-----------|     1x
A|--7-7--5-5--33445555-----------|
E|--5-5--3-3---------------------|

Chorus
e|------------------------------------------------------------|
B|------------------------------------------------------------|
G|------------------------------------------------------------|
D|-10-----5-----9------7-----10-----8------10-----------------|       2x
A|-10-(8x)-5-(8x)-9-(8x)-7-(8x)-10-(8x)-8-(8x)-10-(16x)-------|
E|--8------3-----7-----5------8------6------8-----------------|

| /  slide up
| \  slide down
| h  hammer-on
| p  pull-off
| ~  vibrato
| +  harmonic
| x  Mute note
=============================================================
Tap to rate this tab
# A B C D E F G H I J K L M N O P Q R S T U V W X Y Z