Song name
# A B C D E F G H I J K L M N O P Q R S T U V W X Y Z

Lola Ray - Our Brown Friends tab

-------------------------------------------------------------------------------
			     Our Brown Friends--Lola Ray
-------------------------------------------------------------------------------

Tabbed by: joe
Email: jnistler8@hotmail.com
Tuning: standard


intro and verse:
e|------------------|
B|------------------|
G|------------------|
D|---5--------------|       play this for a while
A|---5--------------|
E|------------------|

prechorus:
e|-----------------------------------------------------------------------------|
B|-----------------------------------------------------------------------------|
G|-----3-3-3-3-3-3-3-3----5-5-5-5-5-5-5-5--------------------------------------|
D|-----3-3-3-3-3-3-3-3----5-5-5-5-5-5-5-5----7~--7~----------------------------|
A|-----1-1-1-1-1-1-1-1----3-3-3-3-3-3-3-3--------------------------------------|
E|-----------------------------------------------------------------------------|

e|-----------------------------------------------------------------------------|
B|-----------------------------------------------------------------------------|
G|-----3-3-3-3-3-3-3-3-----5-5-5-5-5-5-5-5-------------------------------------|
D|-----3-3-3-3-3-3-3-3-----5-5-5-5-5-5-5-5----9~---7---------------------------|
A|-----1-1-1-1-1-1-1-1-----3-3-3-3-3-3-3-3-------------------------------------|
E|-----------------------------------------------------------------------------|

this is all i've got for now but i'll get the rest up when i have time
Tap to rate this tab
# A B C D E F G H I J K L M N O P Q R S T U V W X Y Z