Song name
# A B C D E F G H I J K L M N O P Q R S T U V W X Y Z

Lollipop Lust Kill - Kill Greedy tab

intro          verse
e(----------)(-----------)
b(----------)(-----------)
g(--7-------)(--777-777--)
d(--4-------)(---------7-)
a(--5-4h5-4-)(-----------)
D(----------)(-----------)

pre-chorus       chorus
e(-----------)(------------------)
b(-----------)(------------------)
g(--7777-676-)(--7-77776-7-77778-)
d(--7777-676-)(--7-77776-7-77778-)
a(--5555-454-)(--5-55554-5-55556-)
D(-----------)(------------------)

breakdown
e(--------------)(----------------)
b(--------------)(----------------)
g(--2222-333333-)(----------------)
d(--2222-333333-)(--0-002-0-00232-)
a(--0000-111111-)(--0-002-0-00232-)
D(--------------)(--0-002-0-00232-)
Tap to rate this tab
 
# A B C D E F G H I J K L M N O P Q R S T U V W X Y Z