Song name
# A B C D E F G H I J K L M N O P Q R S T U V W X Y Z

London After Midnight - Bondage Song tab

            h  q  h q  h  q q     h  q  h q  h  q q            q q
E------||----------------------|----------------------||--||------------|
B------||----------------------|----------------------||--||------------|
G------||*---------------------|---------------------*||--||*--4--------|
D------||*---------------------|---------------------*||--||*--4--------|
A------||---2--2--5\9--8--7/5--|--2--2--5\9--8--5\7---||--||---2\5------|
E------||----------------------|----------------------||--||---x--------|
       Intro                                              Main riff

    q  q      q e eqq            e   e  e   e   e  e  e   e      e
E----------|------------||--||--------------------------------|---------|
B----------|------------||--||-------7--7-------7--7--7---7---|--7------|
G---9-\11--|--4---\11--*||--||*--10-----10--10--------10--11--|--11-----|
D---9\-11--|--4----11--*||--||*-------------------------------|---------|
A---7-\9---|--2\5\79\---||--||--------------------------------|---------|
E---0\-x---|--x----x0\--||--||--------------------------------|---------|
                                 Fill 1

    e   e  e  e   e   e   e
E------------------------------||---------------------------------------|
B-------7--7------7---5--------||---------------------------------------|
G---11--------11--11--11--11--*||---------------------------------------|
D-----------------------------*||---------------------------------------|
A------------------------------||---------------------------------------|
E------------------------------||---------------------------------------|
Tap to rate this tab
 
# A B C D E F G H I J K L M N O P Q R S T U V W X Y Z