Song name
# A B C D E F G H I J K L M N O P Q R S T U V W X Y Z

London After Midnight - Your Best Nightmare tab

4/4  intro
E:----------------|----------------|----------------|------------------ 1|
B:----------------|----------------|----------------|------------------ ||
G:----------------|----------------|----------------|------------------*||
D:2-------------4-|5-------------6-|7-------------9-|10-------------10-*||
A:2-------------4-|5-------------6-|7-------------9-|10-------------10- ||
E:0-------------2-|3-------------4-|5-------------7-|-8--------------8- ||

verse:use PM throughout
E:--------------------|-------------------|-------------------|
B:--------------------|-------------------|-------------------|
G:*-------------------|-------------------|-------------------|
D:*2--2-2--2-2--2-2--2|5--5-5--5-5--5-5--5|7--7-7--7-7--7-7--7|
A:-2--2-2--2-2--2-2--2|5--5-5--5-5--5-5--5|7--7-7--7-7--7-7--7|
E:-0--0-0--0-0--0-0--0|3--3-3--3-3--3-3--3|5--5-5--5-5--5-5--5|

                                 chorus:
E:--------------------------- 1|----------------|------------------|
B:--------------------------- ||----------------|------------------|
G:---------------------------*||----------------|------------------|
D:10--10-10--10-10--10-10--10*||7-------------9-|10-------------12-|
A:10--10-10--10-10--10-10--10 ||7-------------9-|10-------------12-|
E:-8---8--8---8--8---8--8---8 ||5-------------7-|-8-------------10-|

E:------------------|-------------------|------------------ 1|
B:------------------|-------------------|------------------ ||
G:------------------|-------------------|------------------*||
D:14-------------12-|14-------16-14-----|12---14-----------*||
A:14-------------12-|14-------16-14-----|12---14----------- ||
E:12-------------10-|12-------14-12-----|10---12----------- ||

"she collapsed to the floor....."
E:------------------------|---------------------||
B:------------------------|---------------------||
G:------------------------|---------------------||
D:14-14-14-14-14-14-12-12-|12-12-12-12-10-------||
A:14-14-14-14-14-14-12-12-|12-12-12-12-10-------||
E:12-12-12-12-12-12-10-10-|10-10-10-10--8-------||

outro
E:| ----|------|------|-----|------|---- |
B:| ----|------|------|-----|------|---- ||
G:|*----|------|------|-----|------|----*||
D:|*12--|--14--|--12--|-10--|--12--|--14*||
A:| 12--|--14--|--12--|-10--|--12--|--14 ||
E:| 10--|--12--|--10--|--8--|--10--|--12 ||
Tap to rate this tab
# A B C D E F G H I J K L M N O P Q R S T U V W X Y Z