Song name
# A B C D E F G H I J K L M N O P Q R S T U V W X Y Z

London Beat - Ive Been Thinking About You tab

e|---------------------------------------------------------------------------|
B|-----------------------------------sl.-------------------------------------|
G|-----------------------------2--2--2-4-------------------------------------|
D|-----------0--4-----------0-------------4----------------------------------|
A|--2--2--2--------2--2--2---------------------------------------------------|
E|---------------------------------------------------------------------------|

e|---------------------------------------------------------------------------|
B|---------------------------------------------------------------------------|
G|------------H-------------H------------------------------------------------|
D|--0--2--0--0-2-----------0-2-----------------------------------------------|
A|----------------2--2--2-------4--0-----2-----------------------------------|
E|------------------------------------2--------------------------------------|
Tap to rate this tab
 
# A B C D E F G H I J K L M N O P Q R S T U V W X Y Z