Song name
# A B C D E F G H I J K L M N O P Q R S T U V W X Y Z

London Grammar - Shyer tab

-----------------------------------------------------------------------------
                             SHYER - London Grammar
-----------------------------------------------------------------------------
Tabbed by: Eva
E-mail: eva.horvathpapp@gmail.com

Tuning: Standard

Intro: 

Bm Gmaj Bm Gmaj 
Em Gmaj Em Gmaj

Bm          Gmaj   Bm               Gmaj
I'm feeling shyer and the world gets darker 
Em                     Gmaj
Hold yourself a little higher 
Em                   Gmaj
Bridge that gap just further
Bm          Gmaj
And all your being
Bm             Gmaj
I'd ask you to give it up
Em         Gmaj
Oh ancient feeling love 
Em        Gmaj
So beautifully dressed up

Bm (chorus picking)

Em              Gmaj
Feeling shyer, I'm feeling shyer 
Bm               Gmaj   Bm     Gmaj
I'm feeling shyer

Em       Gmaj      Em      Gmaj

Bm                 Gmaj    
Maybe you should call her 
Bm                Gmaj
Deep in the night for her
Em          Gmaj   Em          Gmaj
And all your being I'd ask you to give it up
Bm    
Em             Gmaj       
I'd ask you to give it up
Bm           
Aaaaaaaah, give it

Em     Gmaj     Bm
up,      ooooooh   ooooh
Em     Gmaj     Bm 
ooooooh    
Em     Gmaj     Bm
ooooooh   

Em    Gmaj    Amaj  Bm
Oooooooooh


Picking through verses:
e|----10-----10-10----7--7------7--7--9---|
B|-7------7--------10-------10------------|
G|----------------------------------------|
D|----------------------------------------|
A|----------------------------------------|
E|----------------------------------------|

e|----10-----10-10----7--7------7--9--10--|
B|-7------7--------10-------10------------|
G|----------------------------------------|
D|----------------------------------------|
A|----------------------------------------|
E|----------------------------------------|

Picking in chorus

e|-14-14-------12-12-----14-14-------12----|
B|-------15-15-------12--------15-15----12-|
G|-----------------------------------------|
D|-----------------------------------------|
A|-----------------------------------------|
E|-----------------------------------------|

e|-14-14-------12-12-----14-14-------------|
B|-------15-15-------12--------15-15-12-12-|
G|-----------------------------------------|
D|-----------------------------------------|
A|-----------------------------------------|
E|-----------------------------------------|
Tap to rate this tab
# A B C D E F G H I J K L M N O P Q R S T U V W X Y Z