Song name
# A B C D E F G H I J K L M N O P Q R S T U V W X Y Z

London Grammar - Hey Now tab

Hey Now  London Grammar

Tabbed By: welch_dan

Standard Tuning

Muted


I'm pretty sure this is correct; just listen to the song to get the number of repeats 
for the verse and chorus right.


Verse:

e|--------------------------------------------------------------------|
B|------8------8------------------------------------------------------|
G|---7----5--7---5--2------2-2/5-5-5-5-5-5-5-5-5-5--------------------|
D|--------------------------------------------------------------------|
A|--------------------------------------------------------------------|
E|--------------------------------------------------------------------|

Chorus:

e|-----8-10-----------------------------------------------------------|
B|---8----------------------------------------------------------------|
G|--------------------------------------------------------------------|
D|--------------------------------------------------------------------|
A|--------------------------------------------------------------------|
E|--------------------------------------------------------------------|

On the final verse play this (Not Muted):

e|--------------------------------------------------------------------|
B|------8------8------------------------------------------------------|
G|---7----5--7---5--2------2-2/19-19-19-19-19-19-19-19-19-19----------|
D|--------------------------------------------------------------------|
A|--------------------------------------------------------------------|
E|--------------------------------------------------------------------|

e|--------------------------------------------------------------------|
B|------22--------22--------------------------------------------------|
G|---21----19--21---19--16------16-16/19-19-19-19-19-19-19-19-19-19---|
D|--------------------------------------------------------------------|
A|--------------------------------------------------------------------|
E|--------------------------------------------------------------------|
Tap to rate this tab
# A B C D E F G H I J K L M N O P Q R S T U V W X Y Z