Song name
# A B C D E F G H I J K L M N O P Q R S T U V W X Y Z

London Grammar - Strong tab

Yo people, my first ever tab on ultimate guitar. This is by no means perfect just to pre 
warn you but sounds reasonably good to me :)

Intro

E|-------------------------------------|
B|-------------------------------------|
G|-----------3-----------3-------------|
D|-5-5-5-5-3---5-5-5-5-3---5-3-3-3-3-3-|
A|-------------------------------------|
E|-------------------------------------|

Main riff

E|-------------------------------------------|
B|-------------------------------------------|
G|-14/15-15-15-15-15-15-15/17-17-17-17-17----|
D|-------------------------------------------|
A|-------------------------------------------|
E|-------------------------------------------|

E|---------------------------------------------------------|
B|---------------------------------------------------------|
G|--------14-14----14----14-14----14----14-14h15p14--------|
D|-----15-------15----15-------15----15-------------15-----|
A|---------------------------------------------------------|
E|---------------------------------------------------------|


Verse chords

C minor, A# and F major

E|-3--1--1--|
B|-4--3--1--|
G|-5--3--2--|
D|-5--3--3--|
A|-3--1--3--|
E|-------1--|

Chorus chords

D#, A# and F major

E|-3--1--1--|
B|-4--3--1--|
G|-3--3--2--|
D|-5--3--3--|
A|-6--1--3--|
E|-------1--|
Tap to rate this tab
# A B C D E F G H I J K L M N O P Q R S T U V W X Y Z