Song name
# A B C D E F G H I J K L M N O P Q R S T U V W X Y Z

London Symphony Orchestra - Main Title tab

Artist: London Symphony Orchestra
Song: Main Title (Track 1)
Album: Braveheart Soundtrack 

e|---------------------10/12b-14-12-10---------------------|
B|-----7h8-7-5---8/10b-----------------12-10-5---5-7-5-----|
G|-7h9---------7-------------------------------7-----------|
D|---------------------------------------------------------|
A|---------------------------------------------------------|
E|---------------------------------------------------------|

e|---------------------10/12b-14-12-10---------------------|
B|-----7h8-7-5---8/10b-----------------12-10-5---5-7-5-----|
G|-7h9---------7-------------------------------7-------7---|
D|---------------------------------------------------------|
A|---------------------------------------------------------|
E|---------------------------------------------------------|

Might tab the other wee bits and pieces later!
Tap to rate this tab
# A B C D E F G H I J K L M N O P Q R S T U V W X Y Z