Song name
# A B C D E F G H I J K L M N O P Q R S T U V W X Y Z

London Symphony Orchestra - A Gift Of A Thistle tab

Artist: London Symphony Orchestra
Song: A Gift of a Thistle
Album: Braveheart Soundtrack (Track 2)

e|---3/5-7/8-/12--17-15--------------------------------|
B|-5--------------------15-13-18-17-15-13-10-8-12-10---|
G|-----------------------------------------------------|
D|-----------------------------------------------------|
A|-----------------------------------------------------|
E|-----------------------------------------------------|


e|-------------------------------------------|
B|---8/10-13-12-13-12-10-8-8-10--------------|
G|-9----------------------------9------------|
D|-------------------------------------------|
A|-------------------------------------------|
E|-------------------------------------------|

e|-------------------------------------------|
B|---8/10-13-12-13-12-10-8-8/10b-------------|
G|-9-----------------------------------------|
D|-------------------------------------------|
A|-------------------------------------------|
E|-------------------------------------------|


e|-------------------------------------------|
B|---8/10-10-8-------------------------------|
G|-9-----------7-5-10-9-7-5------------------|
D|--------------------------7----------------|
A|-------------------------------------------|
E|-------------------------------------------|

e|-------------------------------------------|
B|-------------------------------------------|
G|----12/14-17-16-16h17p-14-12/14b-----------|
D|-14----------------------------------------|
A|-------------------------------------------|
E|-------------------------------------------|

Enjoy!
Tap to rate this tab
# A B C D E F G H I J K L M N O P Q R S T U V W X Y Z