Song name
# A B C D E F G H I J K L M N O P Q R S T U V W X Y Z

London Symphony Orchestra - Murrons Burial tab

Artist: London Symphony Orchestra
Song: Murron's Burial (Track 7)
Album: Braveheart Soundtrack

[Fingerpicked]

e|-------------------------------------------|
B|-------------------------------------------|
G|----12/14-17-16-16-17-14-12----------------|
D|-14-------------------------14-------------|
A|-------------------------------------------|
E|-------------------------------------------|

e|-------------------------------------------|
B|-------------------------------------------|
G|----12/14-17-16-16h17p-14-12/14b-----------|
D|-14----------------------------------------|
A|-------------------------------------------|
E|-------------------------------------------|
e|-------------------------------------------|

B|-------------------------------------------|
G|----12/14-17-16-16h17p-14-12/14b-----------|
D|-14------------------------------14--------|
A|-------------------------------------------|
E|-------------------------------------------|

e|-------------------------------------------|
B|-------------------------------------------|
G|----12/14-17-16-16h17p-14-12/14b-----------|
D|-14----------------------------------------|
A|-------------------------------------------|
E|-------------------------------------------|

e|-------------------------------------------|
B|---8/10-13-12-13h12p-10-8-8-10-------------|
G|-9-----------------------------9-----------|
D|-------------------------------------------|
A|-------------------------------------------|
E|-------------------------------------------|

e|-------------------------------------------|
B|-10-12-13-12h13p-10/12\10-10\8-8/10/12-----|
G|-------------------------------------------|
D|-------------------------------------------|
A|-------------------------------------------|
E|-------------------------------------------|



e|-------------------------------------------|
B|-15-10-12-13-12-13-15-17-------------------|
G|-------------------------------------------|
D|-------------------------------------------|
A|-------------------------------------------|
E|-------------------------------------------|


e|-------------------------------------------|
B|-20-18-17-15-17-15----22-20-18-20-18-17----|
G|-------------------14----------------------|
D|-------------------------------------------|
A|-------------------------------------------|
E|-------------------------------------------|



e|-------------------------------------------|
B|-18-17-15-17-15-13-15-13-12-13-------------|
G|-------------------------------/14---------|
D|-------------------------------------------|
A|-------------------------------------------|
E|-------------------------------------------|

Tap to rate this tab
# A B C D E F G H I J K L M N O P Q R S T U V W X Y Z