Song name
# A B C D E F G H I J K L M N O P Q R S T U V W X Y Z

London Symphony Orchestra - Wallace Courts Murron tab

Artist: London Symphony Orchestra
Song: Wallace Courts Murron (Track 3)
Album: Braveheart Soundtrack

e|----------------------------------------------------|
B|----------------------------------------------------|
G|------COULDNT WORK OUT THIS FIRST INTRO BIT---------|
D|----------IF I DO I WILL POST IT HERE---------------|
A|----------------------------------------------------|
E|----------------------------------------------------|


e|---------------------------------------------------|
B|---8/10-13-12-12h13p-10-8-8-10---------------------|
G|-9-----------------------------9-------------------|
D|---------------------------------------------------|
A|---------------------------------------------------|
E|---------------------------------------------------|


e|---------------------------------------------------|
B|---8/10-13-12-12h13p-10-8/10b----------------------|
G|-9-------------------------------------------------|
D|---------------------------------------------------|
A|---------------------------------------------------|
E|---------------------------------------------------|


e|---------------------------------------------------|
B|---8/10-13-12-12-13-10-8/10\8----------------------|
G|-9-----------------------------9-------------------|
D|---------------------------------------------------|
A|---------------------------------------------------|
E|---------------------------------------------------|



e|---------------------------------------------------|
B|---8/10--------------------------------------------|
G|-9------12-----------------------------------------|
D|-----------14-12-14-15-12-14-15--------------------|
A|---------------------------------------------------|
E|---------------------------------------------------|


e|---------------------------------------------------|
B|-------17--18-17----20-18--------------18-17-15----|
G|-17-19-----------19-------21--17-19----------------|
D|---------------------------------------------------|
A|---------------------------------------------------|
E|---------------------------------------------------|


e|---------------------------------------------------|
B|-20-18-17-15-17-18---------------------------------|
G|-------------------17-19-17-16-17-16-14------------|
D|---------------------------------------------------|
A|---------------------------------------------------|
E|---------------------------------------------------|


e|----------------------------------------------12---|
B|-10-12-13-12---------12---15-10-12-13-12-13-15-----|
G|-------------14-12-14------------------------------|
D|---------------------------------------------------|
A|---------------------------------------------------|
E|---------------------------------------------------|


e|-15-13-12----------------15/17-17-15---------------|
B|----------15-17-18-15----------------18-17-18-20-18|
G|----------------------14---------------------------|
D|---------------------------------------------------|
A|---------------------------------------------------|
E|---------------------------------------------------|

e|---------------------------------------------------|
B|-17-18-20-18-17-18-17-15-17-15-13-15-13-12-13-12---|
G|---------------------------------------------------|
D|---------------------------------------------------|
A|---------------------------------------------------|
E|---------------------------------------------------|


e|---------------------------------------------------|
B|-10-12-10------------------------------------------|
G|----------12/14 14---------------------------------|
D|---------------------------------------------------|
A|---------------------------------------------------|
E|---------------------------------------------------|


e|---------------------------------------------------|
B|---------------------------------------------------|
G|---5/7-10-9-10-9-7-5-5-5/7-7-----------------------|
D|-7---------------------------7---------------------|
A|---------------------------------------------------|
E|---------------------------------------------------|

e|---------------------------------------------------|
B|---------------------------------------------------|
G|---5/7-10-9-10-9-7-5-5-7bv-------------------------|
D|-7-------------------------------------------------|
A|---------------------------------------------------|
E|---------------------------------------------------|


e|---------------------------------------------------|
B|-------------------------------13-11-10------------|
G|---5/7-10-9-10-9-7-5/7---14-12---------------------|
D|-7-------------------------------------------------|
A|---------------------------------------------------|
E|---------------------------------------------------|


e|---------------------------------------------------|
B|-------17--18-17----20-18--------------18-17-15----|
G|-17-19----------19-------21--17-19-19--------------|
D|---------------------------------------------------|
A|---------------------------------------------------|
E|---------------------------------------------------|


e|---------------------------------------------------|
B|-20-18-17-15-17-18---------------------------------|
G|-------------------17-19-17-16-17-16-14------------|
D|---------------------------------------------------|
A|---------------------------------------------------|
E|---------------------------------------------------|


e|---------------------------------------------------|
B|---8/10-13-12-12h13p-10-8-8-10---------------------|
G|-9-----------------------------9-------------------|
D|---------------------------------------------------|
A|---------------------------------------------------|
E|---------------------------------------------------|


e|---------------------------------------------------|
B|---8/10-13-12-12h13p-10-8/10-----------------------|
G|-9-------------------------------------------------|
D|---------------------------------------------------|
A|---------------------------------------------------|
E|---------------------------------------------------|


e|---------------------------------------------------|
B|---8/10-13-12-12h13p-10-8/10\8---------------------|
G|-9-----------------------------9-14-12-------------|
D|---------------------------------------12-10-12----|
A|---------------------------------------------------|
E|---------------------------------------------------|


e|---------------------------------------------------|
B|---------------------------------------------------|
G|-10-9----------------------------------------------|
D|------12-10----------------------------------------|
A|------------12-------------------------------------|
E|---------------------------------------------------|


Tap to rate this tab
 
# A B C D E F G H I J K L M N O P Q R S T U V W X Y Z