Song name
# A B C D E F G H I J K L M N O P Q R S T U V W X Y Z

London Symphony Orchestra - Braveheart Title Song tab

Tabbed: Ameet*
Email: elendil_lotr@yahoo.com

This is my 1st tab so if there r ne mistakes thats y.
This is a kickass tune! Listen 2 the song 2 get the correct rhythm and tempo. 
There’s lots of slides and vibratos to give it that bagpipe effect. 

/=slide
v=vibrato

e|------------------------------------------|
B|------------------------------------------|
G|-----1/3--6--5--5/6\5--3/2----------------|
D|--3-------------------------3v--2v--------|
A|------------------------------------------|
E|------------------------------------------|

e|------------------------------------------|
B|------------------------------------------|
G|-----1/3--6--5--4/5\4--1--2/3v------------|
D|--3---------------------------------------|
A|------------------------------------------|
E|------------------------------------------|

e|------------------------------------------|
B|------------------------------------------|
G|-----1/3--6--5--5--4--3--2v--1------------|
D|--3-----------------------------2--1v-----|
A|------------------------------------------|
E|------------------------------------------|

e|------------------------------------------|
B|------------------------------------------|
G|-----1/3--1-------------------------------|
D|--3----------3--1-------------------------|
A|-------------------5--6v--6/8v/9v---------|
E|------------------------------------------|

Hope u enjoyed it!
Tap to rate this tab
 
# A B C D E F G H I J K L M N O P Q R S T U V W X Y Z