Song name
# A B C D E F G H I J K L M N O P Q R S T U V W X Y Z

Long Distance Calling - Into The Black Wide Open tab

(/) Slide Up  (\) Slide Down  (h) Hammer On  (p) Pull Off  (b) Bend (r) Release (v) Vibrato

**the bends in this are tricky to tab, but i'm sure you can work out how they sound.

E|--------------------------------------------------------|
B|--------------------------------------------------------|
G|--5--7--9b--7--5--7--9b---------------------------------| play 2 times
D|-------------------------7--5--7--7b--10--5--7--7b--12--|
A|--------------------------------------------------------|
E|--------------------------------------------------------|

    |-this part is played quickly-|
E|-----------------------------------------------------------------------|
B|------------------12--12--14--15------13--15------13--15------13--17b--|
G|----------12--14------------------14----------14----------14-----------|
D|--12--14---------------------------------------------------------------|
A|-----------------------------------------------------------------------|
E|-----------------------------------------------------------------------|


E|------------------------------------------------------|
B|--15--13--15------13--15------13--15------------------|
G|--------------14----------14----------14--\9--9b--\3--|
D|------------------------------------------------------|
A|------------------------------------------------------|
E|------------------------------------------------------|


E|-----------------------------------|
B|--3---5---6---8----10---11---15----|
G|--5b--7b--8b--10b--12b--13b--17b---|
D|-----------------------------------|
A|-----------------------------------|
E|-----------------------------------|

Any problem with the tab, contact me at halo3nutter@hotmail.com THANKS!
Tap to rate this tab
# A B C D E F G H I J K L M N O P Q R S T U V W X Y Z