Long Miles - Girl Dont Come Around chords

-------------------------------------------------------------------------------
                             Girl, Don't Come Around
                                  by Long Miles
-------------------------------------------------------------------------------

tabbed by: Sam Hall
Tuning: Standard (EADGBe)

Here's the first riff chords.
Play this x3

e|---------------------------|
B|---------------------------|
G|--6---11---11--9-7-6-------|
D|--7---12---12-11-9-7-------|
A|---------------------------|
E|---------------------------|


e|---------------------------|
B|---------------------------|
G|--6---11---11--14--14------|
D|--7---12---12--14--14------|
A|-------------------16------|
E|---------------------------|

These are the chords used throughout the song and the strumming pattern will mix up too.
Tap to rate this tab
 
# A B C D E F G H I J K L M N O P Q R S T U V W X Y Z