Song name
# A B C D E F G H I J K L M N O P Q R S T U V W X Y Z

Long Shot Hero - All We Wanna Be tab

Help us improve GuitareTab! Take a short survey!
-------------------------------------------------------------------------------
			     All We Want Be-Long Shot Hero
-------------------------------------------------------------------------------
Tabbed by:Chow Monkey


Tuning:Standard

Guitar 1
e|---------------------------------------------------------------------------|
B|---------------------------------------------------------------------------|
G|------------8-8-------------10-10-------------8-8-------------3-3----------|
D|--8-8--x-x--8-8-x-x-8-8-x-x-10-10-x-x-8-8-x-x-8-8-x-x-3-3-x-x-3-3-x-x------| X 7
A|--8-8--x-x--6-6-x-x-8-8-x-x-8--8--x-x-8-8-x-x-6-6-x-x-3-3-x-x-1-1-x-x------|
E|--6-6--x-x------x-x-6-6-x-x-------x-x-6-6-x-x-----x-x-1-1-x-x-----x-x------|

Guitar 2 comes in after the intro been played 5 times... palm muted
e|---------------------------------------------------------------------------|
B|---------------------------------------------------------------------------|
G|----------8---8--------------10---10--------------8---8--------------3---3|
D|-8---8------6---6----8---8-----8----8----8---8------6---6-----3---3----1--1|x 2
A|---6---6---------------6---6----------------6---6----------------1---1-----|
E|---------------------------------------------------------------------------|

Guitar 1 chorus 
e|---------------------------------------------------------------------------|
B|---------------------------------------------------------------------------|
G|-----------------8-8-------------------------------------------------------|
D|-8-8-x-x-5-5-x-x-8-8-x-x-3-3-x-x-------------------------------------------|x 6
A|-8-8-x-x-5-5-x-x-6-6-x-x-3-3-x-x-------------------------------------------|
E|-6-6-x-x-3-3-x-x-----x-x-1-1-x-x-------------------------------------------|

 Back To the intro.. Just listen carefully to when guitar 2 comes in.. 
 Then Back to the chorus Above then.. Palm muted
e|---------------------------------------------------------------------------|
B|---------------------------------------------------------------------------|
G|---------------------------------------------------------------------------|
D|-8-8-8-8-8-8-8-8-8-8-8-8-10-10-10-10-5-5-5-5-5-5-5-5--1-0-1-3--1-0-1-3-----|x 6
A|-8-8-8-8-8-8-8-8-8-8-8-8-10-10-10-10-5-5-5-5-5-5-5-5-----------------------|
E|-6-6-6-6-6-6-6-6-6-6-6-6-8--8--8--8--3-3-3-3-3-3-3-3-----------------------|
 
 Then back to the chorus
 And it finishes with the above

 Its kak easy and realy cool im pretty sure this is right there mite be a   
 mistake but thats cause it takes ages to write this stuff down...


Related for All We Wanna Be tab