Song name
# A B C D E F G H I J K L M N O P Q R S T U V W X Y Z

Long Shot Hero - Leederacola tab

Leederacola - Long Shot Hero

This is such a good band, I don't know why they don't have any tabs from them here. 
This is an awesome song, get it if you don't have it; I am not at all sure if this tab is correct, 
I tabbed it really quickly on my way to somewhere out of pure memory, but please try it out anyway. Thx! :P

Intro:

e|------------------------------------------------------------|
B|------------------------------------------------------------|
G|-----0-----0---0------2-----2---2------3-----3---3----------|
D|---0-----0-----0----0-----0-----0----0-----0-----0--4--2--0-|
A|-3-----3-----3----4-----4-----4----5-----5-----5------------|
E|------------------------------------------------------------|

e|------------------------------------------------------------|
B|------------------------------------------------------------|
G|-----0-----0---0------2-----2---2------3-----3---3----------|
D|---0-----0-----0----0-----0-----0----0-----0-----0--4--2--0-|
A|-3-----3-----3----4-----4-----4----5-----5-----5------------|
E|------------------------------------------------------------|


Verse:

e|------------------------------------------------------------|
B|------------------------------------------------------------|
G|-----0-----0---0------2-----2---2------3-----3---3----------|
D|---0-----0-----0----0-----0-----0----0-----0-----0--4--2--0-|
A|-3-----3-----3----4-----4-----4----5-----5-----5------------|
E|------------------------------------------------------------|

e|------------------------------------------------------------|
B|------------------------------------------------------------|
G|-----0-----0---0------2-----2---2------3-----3---3----------|
D|---0-----0-----0----0-----0-----0----0-----0-----0--4--2--0-|
A|-3-----3-----3----4-----4-----4----5-----5-----5------------|
E|------------------------------------------------------------|

e|------------------------------------------------------------|
B|------------------------------------------------------------|
G|-----0-----0---0------2-----2---2------3-----3---3----------|
D|---0-----0-----0----0-----0-----0----0-----0-----0--4--2--0-|
A|-3-----3-----3----4-----4-----4----5-----5-----5------------|
E|------------------------------------------------------------|

e|------------------------------------------------------------|
B|------------------------------------------------------------|
G|-----0-----0---0------2-----2---2------3-----3---3----------|
D|---0-----0-----0----0-----0-----0----0-----0-----0--4--2--0-|
A|-3-----3-----3----4-----4-----4----5-----5-----5------------|
E|------------------------------------------------------------|

Lyrics:

There's so many things I wanna say to you 
It's been like this the last two years 
You're slowly consuming my every thought 
But you've cause me so many tears


Chorus:

e|------------------------------------------------------------|
B|------------------------------------------------------------|
G|-----0-----0---0------2-----2---2------3-----3---3----------|
D|---0-----0-----0----0-----0-----0----0-----0-----0--4--2--0-|
A|-3-----3-----3----4-----4-----4----5-----5-----5------------|
E|------------------------------------------------------------|

e|------------------------------------------------------------|
B|------------------------------------------------------------|
G|-----0-----0---0------2-----2---2------3-----3---3----------|
D|---0-----0-----0----0-----0-----0----0-----0-----0--4--2--0-|
A|-3-----3-----3----4-----4-----4----5-----5-----5------------|
E|------------------------------------------------------------|

e|------------------------------------------------------------|
B|------------------------------------------------------------|
G|-----0-----0---0------2-----2---2------3-----3---3----------|
D|---0-----0-----0----0-----0-----0----0-----0-----0--4--2--0-|
A|-3-----3-----3----4-----4-----4----5-----5-----5------------|
E|------------------------------------------------------------|

e|------------------------------------------------------------|
B|------------------------------------------------------------|
G|-----0-----0---0------2-----2---2------3-----3---3----------|
D|---0-----0-----0----0-----0-----0----0-----0-----0--4--2--0-|
A|-3-----3-----3----4-----4-----4----5-----5-----5------------|
E|------------------------------------------------------------|

Lyrics:

Your blue eyes trapped inside my head 
Yeah, I'm writing about you again 
I could tell you I loved you a thousand times 
But you'd still need me as just a friend 


Verse:

e|------------------------------------------------------------|
B|------------------------------------------------------------|
G|-----0-----0---0------2-----2---2------3-----3---3----------|
D|---0-----0-----0----0-----0-----0----0-----0-----0--4--2--0-|
A|-3-----3-----3----4-----4-----4----5-----5-----5------------|
E|------------------------------------------------------------|

e|------------------------------------------------------------|
B|------------------------------------------------------------|
G|-----0-----0---0------2-----2---2------3-----3---3----------|
D|---0-----0-----0----0-----0-----0----0-----0-----0--4--2--0-|
A|-3-----3-----3----4-----4-----4----5-----5-----5------------|
E|------------------------------------------------------------|

e|------------------------------------------------------------|
B|------------------------------------------------------------|
G|-----0-----0---0------2-----2---2------3-----3---3----------|
D|---0-----0-----0----0-----0-----0----0-----0-----0--4--2--0-|
A|-3-----3-----3----4-----4-----4----5-----5-----5------------|
E|------------------------------------------------------------|

e|------------------------------------------------------------|
B|------------------------------------------------------------|
G|-----0-----0---0------2-----2---2------3-----3---3----------|
D|---0-----0-----0----0-----0-----0----0-----0-----0--4--2--0-|
A|-3-----3-----3----4-----4-----4----5-----5-----5------------|
E|------------------------------------------------------------|

Lyrics:

Those times you kissed me when we were both drunk 
When you made fun of me for being a punk 
I can't ignore them, or what we'd be 
Congratulations you mean everything to me 


Chorus:

e|------------------------------------------------------------|
B|------------------------------------------------------------|
G|-----0-----0---0------2-----2---2------3-----3---3----------|
D|---0-----0-----0----0-----0-----0----0-----0-----0--4--2--0-|
A|-3-----3-----3----4-----4-----4----5-----5-----5------------|
E|------------------------------------------------------------|

e|------------------------------------------------------------|
B|------------------------------------------------------------|
G|-----0-----0---0------2-----2---2------3-----3---3----------|
D|---0-----0-----0----0-----0-----0----0-----0-----0--4--2--0-|
A|-3-----3-----3----4-----4-----4----5-----5-----5------------|
E|------------------------------------------------------------|

e|------------------------------------------------------------|
B|------------------------------------------------------------|
G|-----0-----0---0------2-----2---2------3-----3---3----------|
D|---0-----0-----0----0-----0-----0----0-----0-----0--4--2--0-|
A|-3-----3-----3----4-----4-----4----5-----5-----5------------|
E|------------------------------------------------------------|

e|------------------------------------------------------------|
B|------------------------------------------------------------|
G|-----0-----0---0------2-----2---2------3-----3---3----------|
D|---0-----0-----0----0-----0-----0----0-----0-----0--4--2--0-|
A|-3-----3-----3----4-----4-----4----5-----5-----5------------|
E|------------------------------------------------------------|

Lyrics:

Your blue eyes trapped inside my head 
Yeah, I'm writing about you again 
I could tell you I loved you a thousand times 
But you'd still need me as just a friend 


Bridge:

e|--------------------------------------------------------------------|
B|--------------------------------------------------------------------|
G|7~~-7-7-7-7-7-7-7-7-7-7-7-7-7-7-7-7-7-7-7-7-7-7-7-7-7-7-7-7-7-7-7-7-|
D|7~~-7-7-7-7-7-7-7-7-7-7-7-7-7-7-7-7-7-7-7-7-7-7-7-7-7-7-7-7-7-7-7-7-|
A|5~~-5-5-5-5-5-5-5-5-5-5-5-5-5-5-5-5-5-5-5-5-5-5-5-5-5-5-5-5-5-5-5-5-|
E|--------------------------------------------------------------------|

e|----------|
B|----------|
G|7-7-7-7-7-|
D|7-7-7-7-7-|
A|5-5-5-5-5-|
E|----------|

Lyrics:

I never wanna see you again.
I never wanna see you again.
I never wanna see you again.
I never wanna see you again. (oooooooh...)

Chorus:

e|------------------------------------------------------------|
B|------------------------------------------------------------|
G|-----0-----0---0------2-----2---2------3-----3---3----------|
D|---0-----0-----0----0-----0-----0----0-----0-----0--4--2--0-|
A|-3-----3-----3----4-----4-----4----5-----5-----5------------|
E|------------------------------------------------------------|

e|------------------------------------------------------------|
B|------------------------------------------------------------|
G|-----0-----0---0------2-----2---2------3-----3---3----------|
D|---0-----0-----0----0-----0-----0----0-----0-----0--4--2--0-|
A|-3-----3-----3----4-----4-----4----5-----5-----5------------|
E|------------------------------------------------------------|

e|------------------------------------------------------------|
B|------------------------------------------------------------|
G|-----0-----0---0------2-----2---2------3-----3---3----------|
D|---0-----0-----0----0-----0-----0----0-----0-----0--4--2--0-|
A|-3-----3-----3----4-----4-----4----5-----5-----5------------|
E|------------------------------------------------------------|

e|------------------------------------------------------------|
B|------------------------------------------------------------|
G|-----0-----0---0------2-----2---2------3-----3---3----------|
D|---0-----0-----0----0-----0-----0----0-----0-----0--4--2--0-|
A|-3-----3-----3----4-----4-----4----5-----5-----5------------|
E|------------------------------------------------------------|

Lyrics:

Your blue eyes trapped inside my head 
Yeah, I'm writing about you again 
I could tell you I loved you a thousand times 
But you'd still need me as just a friend 

And that's it!
Tap to rate this tab
 
# A B C D E F G H I J K L M N O P Q R S T U V W X Y Z