Song name
# A B C D E F G H I J K L M N O P Q R S T U V W X Y Z

Long Winters - Blue Diamonds tab

----------------------------------------------------------------------------
			     Blue Diamonds - Rusted Root
----------------------------------------------------------------------------
Tabbed by:Corey Brasher
Email:beband@hotmail.com

Tuning:Standard (capo II)

(all chords relative to capo)

First Verse Chords
e|------3---|------0---|-----2-----|-----0-----------------------------------|
B|------3---|------3---|-----3-----|-----3-----------------------------------|
G|------0---|------0---|-----2-----|-----0-----------------------------------|
D|------0---|------2---|-----0-----|-----2-----------------------------------|
A|------2---|------2---|-----x-----|-----3-----------------------------------|
E|------3---|------0---|-----x-----|-----x-----------------------------------|

Chorus Chords
e|------0----|-------0------|--------3---------------------------------------|
B|------3----|-------3------|--------2---------------------------------------|
G|------0----|-------0------|--------3---------------------------------------|
D|------2----|-------2------|--------0---------------------------------------|
A|------3----|-------2------|--------x---------------------------------------|
E|------x----|-------0------|--------x---------------------------------------|


Bridge
e|-------0-------------------------------------------------------------------|
B|-------0-------------------------------------------------------------------|
G|-------x-------------------------------------------------------------------|
D|-------2-------------------------------------------------------------------|
A|-------2-------------------------------------------------------------------|
E|-------0-------------------------------------------------------------------|
play the E this way and if you can do some middle eastern sounds along with it even better!

| /  slide up
| \  slide down
| h  hammer-on
| p  pull-off
| ~  vibrato
| +  harmonic
| x  Mute note
===============================================================================
Tap to rate this tab
# A B C D E F G H I J K L M N O P Q R S T U V W X Y Z