Song name
# A B C D E F G H I J K L M N O P Q R S T U V W X Y Z

Longview - Only When You Sleep tab

band:longview
song name:only when you sleep

Main Riff:

  D#5                  B5                F#5
E-----------------------------------------------------|
B-----------------------------------------------------|
G--8-8-8-8-8-8-8-8------------------------------------|
D--8-8-8-8-8-8-8-8--9-9-9-9-9-9-9-9--4-4-4-4-4-4-4-4--|
A--6-6-6-6-6-6-6-6--9-9-9-9-9-9-9-9--4-4-4-4-4-4-4-4--|
E-------------------7-7-7-7-7-7-7-7--2-2-2-2-2-2-2-2--|
   C#5
E-------------------|
B-------------------|
G--6-6-6-6-6-6-6-6--|
D--6-6-6-6-6-6-6-6--|
A--4-4-4-4-4-4-4-4--|
E-------------------|
Tap to rate this tab
# A B C D E F G H I J K L M N O P Q R S T U V W X Y Z