Song name
# A B C D E F G H I J K L M N O P Q R S T U V W X Y Z

Longwave - I Dont Dare tab

----------------------------------------------------------------------------
                          I Don't Dare by Longwave
----------------------------------------------------------------------------
Tabbed by: Steve
Email: midnighthatter@hotmail.com

This song seems really easy on guitar and consists of only three little riffs
|Standard Tuning
|No Capo
|A wee bit of distortion, maybe a little chorus effect if you're feeling frisky but lots 
delay. (I use Gearbox run through a TonePort with plain distortion all knobs at 50%, 
Chorus low speed and all at 50%, and Low-Rez Delay with a lot of feedback)

The whole song except the Chorus is really quick up and down picking

Intro/Verse/Outro
e--17(x16)-14(x8)--------14(x16)----------------------------------------|
b-----------------17(x8)------------------------------------------------|
g--------------------------------14(x8)-16(x8)--------------------------|
d-----------------------------------------------------------------------|
a-----------------------------------------------------------------------|
E-----------------------------------------------------------------------|

Chorus/Refrain/What have you
e-----------------------------------------------------------------------|
b-------------15-15-------17-17-------15-15-----------------------------|
g-14-14-18-18-------18-18-------18-18-------18-18-----------------------|
d-----------------------------------------------------------------------|
a-----------------------------------------------------------------------|
E-----------------------------------------------------------------------|

Bridge
e-17(x16)-16(x16)-14(x32)-----------------------------------------------|
b-----------------------------------------------------------------------|
g-----------------------------------------------------------------------|
d-----------------------------------------------------------------------|
a-----------------------------------------------------------------------|
E-----------------------------------------------------------------------|
Tap to rate this tab
# A B C D E F G H I J K L M N O P Q R S T U V W X Y Z