Song name
# A B C D E F G H I J K L M N O P Q R S T U V W X Y Z

Longwave - Life Of The Party tab

-------------------------------------------------------------------------------
			     Life of the party - Longwave
-------------------------------------------------------------------------------
Tabbed by: Billy
Email:wjoconnor2@gmail.com

Standard tuning

my first tab, so dont shoot me. this looks like what steve plays in a live show. 
this song takes the cake and needed a tab. anyways, I love this song like babies 
love toilet paper.

Chords
D  (000232)  
Bm (004432)  
G  (355433) 
A  (577655)

Intro/verse
         D                   Bm                G                   A 
e|--------2---------|--------2---------|------------------|------------------|
B|------------3-----|------------3-----|--------3---------|--------5---------|
G|----2-----------2-|----4-----------4-|------------4-----|------------6-----|
D|--0---0---0---0---|--4---4---4---4---|----5-----------5-|----7-----------7-|
A|------------------|------------------|--5---5---5---5---|--7---7---7---7---|
E|------------------|------------------|------------------|------------------|

Chorus
          G                  A                  D                  Bm
e|------------------|------------------|--------2---------|--------2---------|
B|--------3---------|--------5---------|------------3-----|------------3-----|
G|------------4-----|------------6-----|----2-----------2-|----4-----------4-|
D|----5-----------5-|----7-----------7-|--0---0---0---0---|--4---4---4---4---|
A|--5---5---5---5---|--7---7---7---7---|------------------|------------------|
E|------------------|------------------|------------------|------------------|

Waiting for the day x3
         G                   A
e|------------------|------------------|
B|--------3---------|--------5---------|
G|------------4-----|------------6-----|
D|----5-----------5-|----7-----------7-|
A|--5---5---5---5---|--7---7---7---7---|
E|------------------|------------------|

end with a D if you want
e|-------2----------|
B|-------3----------|
G|-------2----------|
D|-------0----------|
A|------------------|
E|------------------|

Something like that.  I think its pretty alright. 
Let me know if you spot any mistakes or got something more accurate.
Have an awesome day! :)
Tap to rate this tab
# A B C D E F G H I J K L M N O P Q R S T U V W X Y Z