Song name
# A B C D E F G H I J K L M N O P Q R S T U V W X Y Z

Lonlonjp - Dont Be Afraid tab

Tuning = DADGBE;



   |       |       |       |       |        |       |       |       |       |        
E |----------------------------------------|----------------------------------------|
B |----------------------------------------|----------------------------------------|
G |----------------------------------------|----------------------------------------|
D |0-------0---0-------0---0-------0-------|0-------0---0-------0---0-------0-------|
A |0-------0---0-------0---0-------0-------|3-------3---3-------3---3-------3-------|
D |----------------------------------------|----------------------------------------|
 
 |       |       |       |       |        |       |       |       |       |        
|----------------------------------------|----------------------------------------|
|----------------------------------------|----------------------------------------|
|----------------------------------------|----------------------------------------|
|0-------0---0-------0---0-------0-------|0-------0---0-------0---0-------0-------|
|2-------2---2-------2---2-------2-------|1-------1---1-------1---1-------1-------|
|----------------------------------------|----------------------------------------|
 
 |       |       |       |       |        |       |       |       |       |        
|----------------------------------------|8---------------------------------------|
|3---3---3---3---3---3---3---3---3---3---|3---3---3---3---3---3---3---3---3---3---|
|2---2---2---2---2---2---2---2---2---2---|5-------5---5-------5---5-------5-------|
|0-------0---0-------0---0-------0-------|0---------------------------------------|
|----------------------------------------|----------------------------------------|
|----------------------------------------|----------------------------------------|
 
 |       |       |       |       |        |       |       |       |       |        
|7---------------------------------------|6---------------------------------------|
|3---3---3---3---3---3---3---3---3---3---|3---3---3---3---3---3---3---3---3---3---|
|4-------4---4-------4---4-------4-------|3-------3---3-------3---3-------3-------|
|0---------------------------------------|0---------------------------------------|
|----------------------------------------|----------------------------------------|
|----------------------------------------|----------------------------------------|
 
 |       |       |       |       |        |       |       |       |       |        
|----------------------------------------|5---5---5-------------------------------|
|------------0-----------1-------3-------|5-----------4-----------3---------------|
|2-----------2-----------2-------5-------|--------------------------------5-------|
|2---------------------------------------|----------------------------------------|
|0-----------0-----------0-------0-------|0---0---0---0---0---0---0-------0-------|
|----------------------------------------|----------------------------------------|
 
 |       |       |       |       |        |       |       |       |       |        
|------------3-------------------7-------|10--------------------------------------|
|--------------------3---5---------------|----------------------------------------|
|2-------------------------------7-------|10--------------------------------------|
|3---------------------------------------|--------0-------------------------------|
|0---0---0---0-------0---0-------0-------|0-------------------------------0-------|
|----------------------------------------|----------------10------9---------------|

 |       |       |        |       |       |        |       |       |       |        
|7-------8---7-----------|------------------------|--------------------------------|
|8-------8---8-------10--|8-------10--8-----------|6-------5-------3-------0-------|
|------------------------|7-------7---7-------7---|7-------5-------4-------0-------|
|------------------------|------------------------|----0-------0-------0-------0---|
|0-----------------------|0-----------------------|--------------------------------|
|------------------------|------------------------|--------------------------------|
 
 |       |       |       |       |        |       |       |       |       |        
|------------------------0-------2-------|0-----------2-----------3-------5-------|
|1-----------3-----------1-------3-------|1-----------3-----------5-------7-------|
|------------2---------------------------|----------------------------------------|
|2---------------------------------------|----------------------------------------|
|0-----------0-----------0-------0-------|0-----------0-----------0-------0-------|
|----------------------------------------|----------------------------------------|
 
 |       |       |       |       |        |       |       |       |       |        
|----------------------------------------|5---5---5-------------------------------|
|------------0-----------1-------3-------|5-----------4-----------3---------------|
|2-----------2-----------2-------5-------|--------------------------------5-------|
|2---------------------------------------|----------------------------------------|
|0-----------0-----------0-------0-------|0---0---0---0---0---0---0-------0-------|
|----------------------------------------|----------------------------------------|
 
 |       |       |       |       |        |       |       |       |       |        
|------------3-------------------7-------|10--------------------------------------|
|--------------------3---5---------------|----------------------------------------|
|2-------------------------------7-------|10--------------------------------------|
|3---------------------------------------|----------------------------------------|
|0---0---0---0-------0---0-------0-------|0-----------0-----------0-------0-------|
|----------------------------------------|----------------------------------------|
 
 |       |       |       |       |        |       |       |       |       |        
|----------------------------------------|------------------------7---8---10--7---|
|----------------------------8---10--7---|8---7---8---10--8---10--0---------------|
|------------------------7---------------|0---------------------------------------|
|9---8---9---10--9---10--0---------------|----------------------------------------|
|0---------------------------------------|----------------------------------------|
|----------------------------------------|----------------------------------------|

 |       |       |       |       |        |       |       |       |       |        
|8---------------------------------------|----------------------------------------|
|--------------------------------7-------|------------7-----------8-------10------|
|9-----------7-----------9-------7-------|9-----------7-----------9-------11------|
|------------7-----------10--------------|10--------------------------------------|
|0-----------0-----------0-------0-------|0-----------0-----------0-------0-------|
|----------------------------------------|----------------------------------------|
 
 |       |       |       |       |        |       |       |       |       |        
|----------------------------------------|--------------------------------3-------|
|------------------------5-------3-------|5-------------------------------5-------|
|2-----------------------5-------4-------|5-------------------------------5-------|
|2---------------------------------------|----------------------------------------|
|0-----------0-----------0-------0-------|0-----------0-----------0-------0-------|
|----------------------------------------|----------------------------------------|
 
 |       |       |       |       |        |       |       |       |       |        
|2---------------------------------------|----------------------------------------|
|3---------------------------------------|3-----------------------5-------6-------|
|2---------------------------------------|2-----------------------5-------7-------|
|----------------------------------------|3---------------------------------------|
|0-----------0-----------0-------0-------|0-----------0-----------0-------0-------|
|----------------------------------------|----------------------------------------|
 
 |       |       |       |       |        |       |       |       |       |        
|----------------------------------------|----------------------------------------|
|5---------------------------------------|----------------------------------------|
|5---------------------------------------|2-----------------------2-------0-------|
|7---------------------------------------|2-----------------------2-------0-------|
|0-----------0-----------0-------0-------|0-----------0-----------0-------0-------|
|----------------------------------------|----------------------------------------|
 
 |       |       |       |       |        |       |       |       |       |        
|----------------------------------------|----------------------------------------|
|------------------------1-------0-------|1---------------------------------------|
|2-----------------------2-------0-------|2---------------------------------------|
|4---------------------------------------|3---------------------------------------|
|0-----------0---0-------0-------0-------|0-----------0-----------0-------0-------|
|----------------------------------------|----------------------------------------|

 |       |       |       |       |        |       |       |       |       |        
|----------------------------------------|--------------------------------3-------|
|------------------------5-------3-------|5-------------------------------5-------|
|2-----------------------5-------4-------|5-------------------------------5-------|
|2---------------------------------------|----------------------------------------|
|0-----------0-----------0-------0-------|0-----------0-----------0-------0-------|
|----------------------------------------|----------------------------------------|
 
 |       |       |       |       |        |       |       |       |       |        
|2---------------------------------------|------------------------1-------3-------|
|3---------------------------------------|3-----------------------3-------5-------|
|2---------------------------------------|2---------------------------------------|
|----------------------------------------|3---------------------------------------|
|0-----------0-----------0-------0-------|0-----------0-----------0-------0-------|
|----------------------------------------|----------------------------------------|
 
 |       |       |       |       |        |       |       |       |       |        
|5---------------------------------------|5---------------------------------------|
|3---3---3---3---3---3---3---3---3---3---|1---1---1---1---1---1---1---1---1---1---|
|2-------2---2-------2---2-------2-------|2-------2---2-------2---2-------2-------|
|0---------------------------------------|0---------------------------------------|
|----------------------------------------|----------------------------------------|
|----------------------------------------|----------------------------------------|
 
 |       |       |       |       |        |       |       |       |       |        
|5---------------------------------------|----------------------------------------|
|0---0---0---0---0---0---0---0---0---0---|----------------------------------------|
|0-------0---0-------0---0-------0-------|3---3---3---3-------3---3-------3-------|
|0---------------------------------------|5---5---5---5-------5---5-------5-------|
|----------------------------------------|5---------------------------------------|
|----------------------------------------|----------------------------------------|
 
 |       |       |       |       |        |       |       |       |       |        
|----------------------------------------|--------------------------------3-------|
|------------------------5-------3-------|5-------------------------------5-------|
|2-----------------------5-------4-------|5-------------------------------5-------|
|2---------------------------------------|----------------------------------------|
|0-----------0-----------0-------0-------|0-----------0-----------0-------0-------|
|----------------------------------------|----------------------------------------|
 
 |       |       |       |       |        |       |       |       |       |        
|2---------------------------------------|----------------------------------------|
|3---------------------------------------|3-----------------------1-------0-------|
|2---------------------------------------|2-----------------------2-------0-------|
|----------------------------------------|3---------------------------------------|
|0-----------0-----------0-------0-------|0-----------0-----------0-------0-------|
|----------------------------------------|----------------------------------------|

 |       |       |       |       |        |       |       |       |       |        
|----------------------------------------|----------------------------------------|
|1-----------------------1---------------|3-----------------------3---------------|
|2-----------------------2---------------|2-----------------------2---------------|
|3-----------------------3---------------|0-----------------------0---------------|
|----------------------------------------|----------------------------------------|
|3-------3---3-------3-----------3-------|3-------3---3-------3-----------3-------|
 
 |       |       |       |       |        |       |       |       |       |        
|0-----------------------0---------------|1-----------------------1---------------|
|----------------------------------------|----------------------------------------|
|2-----------------------2---------------|2-----------------------2---------------|
|3-----------------------3---------------|3-----------------------3---------------|
|----------------------------------------|----------------------------------------|
|3-------3---3-------3-----------3-------|3-------3---3-------3-----------3-------|
 
 |       |       |       |       |        |       |       |       |       |        
|----------------------------------------|5---5---5-------------------------------|
|------------0-----------1-------3-------|5-----------4-----------3---------------|
|2-----------2-----------2-------5-------|--------------------------------5-------|
|2---------------------------------------|----------------------------------------|
|0-----------0-----------0-------0-------|0---0---0---0---0---0---0-------0-------|
|----------------------------------------|----------------------------------------|
 
 |       |       |       |       |        |       |       |       |       |        
|------------3-------------------7-------|10--------------------------------------|
|--------------------3---5---------------|----------------------------------------|
|2-------------------------------7-------|10--------------------------------------|
|3---------------------------------------|--------0-------------------------------|
|0---0---0---0-------0---0-------0-------|0-------------------------------0-------|
|----------------------------------------|----------------10------9---------------|
 
 |       |       |        |       |       |        |       |       |       |        
|7-------8---7-----------|------------------------|--------------------------------|
|8-------8---8-------10--|8-------10--8-----------|6-------5-------3-------0-------|
|------------------------|7-------7---7-------7---|7-------5-------4-------0-------|
|------------------------|------------------------|----0-------0-------0-------0---|
|0-----------------------|0-----------------------|--------------------------------|
|------------------------|------------------------|--------------------------------|
 
 |       |       |       |       |        |       |       |       |       |        
|------------------------0-------2-------|0-----------2-----------3-------5-------|
|1-----------3-----------1-------3-------|1-----------3-----------5-------7-------|
|------------2---------------------------|----------------------------------------|
|2---------------------------------------|----------------------------------------|
|0-----------0-----------0-------0-------|0-----------0-----------0---------------|
|----------------------------------------|----------------------------------------|

 |       |       |       |       |        |       |       |       |       |        
|----------------------------------------|5---5---5-------------------------------|
|------------0-----------1-------3-------|5-----------4-----------3---------------|
|2-----------2-----------2-------5-------|--------------------------------5-------|
|2---------------------------------------|----------------------------------------|
|0-----------0-----------0-------0-------|0---0---0---0---0---0---0-------0-------|
|----------------------------------------|----------------------------------------|
 
 |       |       |       |       |        |       |       |       |       |        
|------------3-------------------7-------|10--------------------------------------|
|--------------------3---5---------------|----------------------------------------|
|2-------------------------------7-------|10--------------------------------------|
|3---------------------------------------|----------------------------------------|
|0---0---0---0-------0---0-------0-------|0-----------0-----------0-------0-------|
|----------------------------------------|----------------------------------------|
 
 |       |       |       |       |        |       |       |       |       |        
|----------------------------------------|------------------------7---8---10--7---|
|----------------------------8---10--7---|8---7---8---10--8---10--0---------------|
|------------------------7---------------|0---------------------------------------|
|9---8---9---10--9---10--0---------------|----------------------------------------|
|0---------------------------------------|----------------------------------------|
|----------------------------------------|----------------------------------------|
 
 |       |       |       |       |        |       |       |       |       |        
|8---------------------------------------|----------------------------------------|
|--------------------------------7-------|------------7-----------8-------10------|
|9-----------7-----------9-------7-------|9-----------7-----------9-------11------|
|------------7-----------10--------------|10--------------------------------------|
|0-----------0-----------0-------0-------|0-----------0-----------0-------0-------|
|----------------------------------------|----------------------------------------|
 
 |       |       |       |       |        
|----------------------------------------|
|----------------------------------------|
|2-----------2-----------5-------2-------|
|2-----------2-----------5-------2-------|
|0-----------0-----------3-------0-------|
|----------------------------------------|
 
Tap to rate this tab
# A B C D E F G H I J K L M N O P Q R S T U V W X Y Z