Guitaretab - guitar tabs
Song name
# A B C D E F G H I J K L M N O P Q R S T U V W X Y Z

Lonnie Johnson - Mr Johnson Blues tab

capo 1

INTRO

E|--9s10----9----8----7----7s10- |
B|-11s12---11---10--- 9----9s12--|
G|-------------------------------|
D|-------------------------------|
A|-------------------------------|
D|------------------------------0|

E|--10----9----8----7----7s10----|
B|--12---11---10--- 9----9s12----|
G|-------------------------------|
D|-------------------------------|
A|-------------------------------|
D|----------------------------0--|

E|--10----9----8----8----7----6--|
B|--12---11---10---10--- 9----8--|
G|-------------------------------|
D|-------------------------------|
A|-------------------------------|
D|-------------------------------|

E|--5----4----3----2-------------|
B|--7----6----5----3-------------|
G|---------------------------2s4-|
D|-------------------------------|
A|-------------------------------|
D|-----------------------0-------|

E|-----5-4-3-------------|
B|-- 3------------------- |
G|-----------6-3---2s4-- |
D|-------0-------0------ |
A|-----------------------|
D|--0--------0---------- |

E|----5-4-3--------------|
B|--3------- 5-5-3-------|
G|-----------------4-----|
D|------0------- 0-------|
A|-----------------------|
D|--0-------0------------|

E|-----------------5-7--- |
B|--3-------3- 5s7-----3--|
G|----2---4-------------- |
D|------0----------- 0----|
A|------------------------|
D|--0---------0---------- |
[ Tab from: http://www.guitaretab.com/l/lonnie-johnson/71995.html ]
E|----5-----------5-7-----|
B|----------3-6s7---------|
G|------2-4---------------|
D|-------0------- 0------- |
A|------------------------|
D|--0------ 0------------- |

E|--5---------5-----------|
B|----8-5-----------------|
G|--------6-----6---2s4---|
D|----------7-----7-------|
A|--0---------0-----------|
D|------------------------|

E|--------5-7-5-----------|
B|--3-5s7-------5-5-5-----|
G|------------------------|
D|------- 0--------------- |
A|------------0---0------- |
D|--0---------------------|

E|--------5-7-5------------|
B|--3-5s7-------5-5--------|
G|-------------------------|
D|----0-------- 0----------|
A|-------------------------|
D|--0------ 0-------------- |

E|----5-5-5-----------------|
B|--3---3-------------------|
G|--------------------------|
D|------0----------0--------|
A|--------------------------|
D|--0---------0-------------|

VERSE

           G7                  ---3---            D      A7    D
I want all you people to listen to my song.
D7        G                            ---3---    D     A7    D
 I want all you people to listen to my song.
                  A7                 ---3---   D
Remember me after the days I'm gone.

OPEN CHORDS

      G7                       D                  A7                 D7
E|--1--|            E|--2--|          E--0--|         E--2--|
B|--0--|            B|--3--|          B--2--|         B--1--|
G|--0--|           G|--2--|          G--0--|        G--2--|
D|--0--|           D|--0--|          D--2--|        D--0--|
A|--2--|           A|-----|           A--0--|        A-----|
E|--3--|            E|-----|           E--0--|         E-----|