Song name
# A B C D E F G H I J K L M N O P Q R S T U V W X Y Z

Loop - Vapour tab

-----------------------------------------------------------------------------
			     VAPOUR - Loop
-----------------------------------------------------------------------------
Tabbed by: klysandral
Email: klysandral_1@hotmail.com

Tuning: Standard

Chorus
e|-----------------------------------------|
B|----------12--12-------------------------|
G|----------12--12-------------------------|
D|-12h14-14-12--12-14----------------------|
A|-12h14-14--------14----------------------|
E|-----------------------------------------|

Verse
e|-----------------------------------------|
B|-----------------------------------------|
G|-----------------------------------------|
D|-7s9-9-9--9-9-0-7s9-9-9--9-9-------------|
A|-5s7-7-7--7-7-0-7s7-7-7--7-7-------------|
E|-----------------------------------------|

Breakdown chord (divebomb the hell out of it with a whammy)
e|-----------------------------------------|
B|-----------------------------------------|
G|-----------------------------------------|
D|-7~~~~~~~--------------------------------|
A|-5~~~~~~~--------------------------------|
E|-----------------------------------------|

Outro
Comes back way faster
e|-----------------------------------------|
B|-----------------------------------------|
G|-----------------------------------------|
D|-7s9-9-9-9-9-9-9-777s9-9-9--9-9-9--------|
A|-5s7-7-7-7-7-7-7-555s7-7-7--7-7-7--------|
E|-----------------------------------------|

Second Guitar
e|--------------------------------------------------|
B|-121212---12-12-12-12-12-12-121212------12--12-12-|
G|-121212---12-12-12-12-12-12-121212------12--12-12-|
D|-12121214-12-12-12-12-12-12-12121214-12-12--12-12-|
A|-------14-------------------------14-12-----------|
E|--------------------------------------------------|

Overdub notes (dive bomb on first chord)
e|-------------------------------------------------|
B|-------------------------------------------------|
G|-------------------------------------------------|
D|-7~~~~-9~~~~-------------------------------------|
A|-5~~~~-7~~~~-------------------------------------|
E|-------------------------------------------------|

Last overdub (slowly slides down fretboard)
e|--------------------------------------------------|
B|-12ssssss0----------------------------------------|
G|-12ssssss0----------------------------------------|
D|-12ssssss0----------------------------------------|
A|--------------------------------------------------|
E|--------------------------------------------------|

the outro repeats over and over gradually slowing down

Awesome British space rock band from late 80's that UG has no recognition for
since they disbanded 20 years ago they don't have an official website but heres the 
http://www.allmusic.com/cg/amg.dll?p=amg&sql=11:kifixqe5ldde~T0
************************************

| /   slide up
| \   slide down
| h   hammer-on
| p   pull-off
| ~   vibrato
| +   harmonic
| x   Mute note
| b   Bend
| pb  Pre-bend
| br  Bend release
| pbr Pre-bend release
| brb Bend release bend

************************************
Tap to rate this tab
 
# A B C D E F G H I J K L M N O P Q R S T U V W X Y Z