Song name
# A B C D E F G H I J K L M N O P Q R S T U V W X Y Z

Loose Fur - Wreckroom tab

WRECKROOM - LOOSE FUR (2006) BORN AGAIN IN THE U.S.A


fill behind main solo:

------------------------------------------------|
------9---------9----------10-----------10------|
----9---9-----9---9-----10----10-----10----10---|
-10--------10--------11-----------11------------|
------------------------------------------------|
------------------------------------------------|

solo with distortion:(double tracked guitars)


---------------------------------------------------------------|  x4
-7/9-9-9--7/9-9-9--10--9-9/7--5/2------------------------------|
-7/9-9-9--7/9-9-9---9--9-9/7--6/1------------------------------|
---------------------------------------------------------------|
---------------------------------------------------------------|
---------------------------------------------------------------|

---------------------------------------------------------------|
---------------------------------------------------------------|
-2/4-44-4/5-55-5/6-66-6/7-77-6/7-77-7/8-88-8/9-99-9/10-1010----|
-2/4-44-4/5-55-5/6-66-6/7-77-6/7-77-7/8-88-8/9-99-9/10-1010----|
---------------------------------------------------------------|
---------------------------------------------------------------|

------------------------------------|--x--|   x2
------------------------------------|--9--|
-3p4-4p5-5p6-6p7-6p7-7p8-8p9-9p10---|--9--|
-3p4-4p5-5p6-6p7-6p7-7p8-8p9-9p10---|--10-|
------------------------------------|--11-|
------------------------------------|--x--| tremolo picking in parentheses


hope it helps you out.
email: sydbrown1970@yahoo.com
thanks, blake
best Loose Fur site: http://www.dragcity.com/bands/loosefur.html
Tap to rate this tab
 
# A B C D E F G H I J K L M N O P Q R S T U V W X Y Z