Song name
# A B C D E F G H I J K L M N O P Q R S T U V W X Y Z

Loose Fur - Answers To Your Questions tab

Help us improve GuitareTab! Take a short survey!
Verse chords:
Csus4:  x3301x
Am7#5:  x0301x

  Csus4
E|--------------------------------|
B|----------1---------------1-----|
G|--------------0---------------0-|
D|----0h3-----3-------0h3-----3---|<-Thumb
A|3-------3-------3-------3-------|<-Thumb
E|--------------------------------|

  Am7#5
E|--------------------------------|
B|----------1---------------1-----|
G|--------------0---------------0-|
D|----0h3-----3-------0h3-----3---|
A|0-------0-------0-------0-------|
E|--------------------------------|

Chorus chords: 
Cmaj7:   8x998x don't barre
Bbmaj7:  6x776x don't barre
Fm/Ab:   4x656x
Em/G:    3x545x
Am7:     x0201x 
G7:      3x303x

  Cmaj7
E|--------------------------------|
B|------8-------8-------8---------|
G|--9-------9-------9-------9-----|
D|----9-------9-------9-------9---|<-Thumb
A|--------------------------------|
E|8-------8-------8-------8-------|<-Thumb

  Bbmaj7          Fm/Ab 
E|--------------------------------|
B|------6---------------6---------|
G|--7-------7-------5-------5-----|
D|----7-------7-------6-------6---|
A|--------------------------------|
E|6-------6-------4-------4-------|

  Em/G            Am7 
E|--------------------------------|
B|------5---------------0h1-------|
G|--4-------4-------0-------0-----|
D|----5-------5-------2-------2---|
A|----------------0-------0-------|
E|3-------3-----------------------|

  G7
E|--------------------------------|
B|------3-------3-------3---------|
G|--0-------0-------0-------0-----|
D|----3-------3-------3-------3---|
A|--------------------------------|
E|3-------3-------3-------3-------|

Verse sequence:
Csus4                   Am7#5        Csus4
You always write to ask how come I don't write back
           Am7#5                         Csus4
Well I can tell you but then I'd have to write
                            Am7#5            Csus4
A letter that would start I finally found it in my heart
          Am7#5
Not to forgive you.

Chorus sequence:
Cmaj7      Bbmaj7   Fm/Ab Em/G       Am7    G7
Is there a need for me to hear every last detail
Cmaj7     Bbmaj7      Fm/Ab Em/G       Am7   G7  
Of pleasantries that accumu-late like I wanna bail.
Related for Answers To Your Questions tab