Song name
# A B C D E F G H I J K L M N O P Q R S T U V W X Y Z

Loose Fur - Chinese Apple tab

-------------------------------------------------------------------------------
			     CHINESE APPLE - Loose Fur
-------------------------------------------------------------------------------
Tabbed by: Ben Aitken
Email: ben.j.aitken@gmail.com

Tuning: DADGBE
Fingerstyle (listen to the record for the timing of the bass notes,
they aren't lined up correctly)


G1 Main Riff:
e|---------------------------------------------------------------------------|
B|---------------------------------------------------------------------------|
G|---------------2--4--------2--0-------0---2-----0--------------------------|
D|--0----0----------------0---------0----------------0-----------------------|
A|---------------0--4--4--4--4--2--2--2--2--2--2--2--2-----------------------|
D|--0----0--2/4--------------------------------------------------------------|

G2 (with main riff): 
e|------------------2--------------------------------------------------------|
B|----------------------3---------------0----2----3-----2----0---------------|
G|-------2-------------------------------------------------------------------|
D|--2/4----------------------------------------------------------------------|
A|---------------------------------------------------------------------------|
D|---------------------------------------------------------------------------|

G1 Verse:
e|-------2--0--2-------------------------------------------------------------|
B|-------3--2--0---------5-----5------------5-----5--------------------------|
G|-------2--2--2------------7-----7------------7-----7-----------------------|
D|--2/4--------------/6--------------6------------------5--------------------|
A|---------------------------------------------------------------------------|
D|--------------------------------------/5-----------------0-----------------|

G2 verse:
e|--------10---9---7---------------------------------------------------------|
B|--------10--10--10------5-----5------------5-----5-------------------------|
G|--9/11---------------------7-----7------------7-----7----------------------|
D|--------------------/6--------------6--/5--------------5-------------------|
A|---------------------------------------------------------------------------|
D|---------------------------------------------------------------------------|

G1 Instumental after 2nd verse:
e|-----------0---------------------------------------------------------------|
B|--3-----3-----3-----3-----3--3-----3-----0---------------------------------|
G|-----4-----------4-----4--------4-----2-------2----------------------------|
D|---------------------------------------------------------------------------|
A|---------------------------------------------------------------------------|
D|--5--5--5--5--5--5--5--5--5--5--5--5--5--5--5--5---------------------------|

e|---------------------------------------------------------------------------|
B|---------------------------------------------------------------------------|
G|--2--------2-----2--------2-----2--------2-----2---------------------------|
D|---------------------------------------------------------------------------|
A|-------4--------------4-------------4--------4-----------------------------|
D|--4--4--4--4--4--4--4--4--4--4--4--4--4--4--4--4---------------------------|

e|---------------------------------------------------------------------------|
B|---------------------------------------------------------------------------|
G|---------------------------------------------------------------------------|
D|--4-----4--6--4-----4-----4--6--4-----4-----4--6--4-----4-----4--6--4------|
A|-----2-----------2-----2-----------2-----2-----------2-----2-----------2---|
D|--2--2--2--2--2--2--2--2--2--2--2--2--2--2--2--2--2--2--2--2--2--2--2--2---|

G1 Bridge:
e|----------------------------------------------------------------------------|
B|-----------3-----------------2-----------------3-------------------3--------|
G|-----0--------0--------2--------2--------2--------2----------0--------0-----|
D|--------0--------0--------2--------2--0-----0-------------------0--------0--|
A|--------------------0-------------------------------------------------------|
D|-/5--------------------------------------------------4--4/5-----------------|

e|----------------------------------------------------------------------------|
B|-----------2----------------------------------------------------------------|
G|-----2--------2---------------------------0--------0--------0--------0------|
D|--------2--------2-----0--------0------------0--------0--------0--------0---|
A|--0-----------------------0--------0----------------------------------------|
D|--------------------0--------0--------/5--------5--------5--------5---------|

e|------------------------------------|
B|-----2--------3-----3-----3-----3---|
G|-----2--------2-----2-----2-----2---|
D|--------2---------------------------|
A|--0---------------------------------|
D|-----------0-----0-----0-----0------|

Dsus2 chord until main riff comes back in

Ending (piano arr. for guitar):

e|------10----------10-------------------------------------------------------|
B|--12------12--11------11--10-----------------------------------------------|
G|---------------------------------------------------------------------------|
D|---------------------------------------------------------------------------|
A|---------------------------------------------------------------------------|
D|---------------------------------------------------------------------------|

| /  slide up
| \  slide down
| h  hammer-on
| p  pull-off
| ~  vibrato
| +  harmonic
| x  Mute note
===============================================================================
Tap to rate this tab
 
# A B C D E F G H I J K L M N O P Q R S T U V W X Y Z