Song name
# A B C D E F G H I J K L M N O P Q R S T U V W X Y Z

Loose Fur - An Ecumenical Manner tab

-------------------------------------------------------------------------------
			     An Ecumenical Manner - Loose Fur
-------------------------------------------------------------------------------
Tabbed by: Thahepcat

Tuning: normal

I haven't tabbed out the whole song, but I think these are a few of the riffs.

e|---------------------------------------------------------------------------|
B|-----------------------------3---------5--------3---------3/5--------------|
G|---------------------------------------------------------------------------|
D|--2-h4-h5-4-p2-0-h2-h4-----------------------------------------------------|
A|------------------------2-2--------5-5------2-2-----0----------------------|
E|---------------------------------------------------------------3-----------|

e|-------------------------------------0-------------------------------------|
B|-----------------------------3-------5--------3----------3/5---------------|
G|-----------------------------0----------------0----------------------------|
D|--2-h4-h5-4-p2-0-h2-h4-----------------------------------------------------|
A|------------------------2-2------5-5------2-2-------2--0-------------------|
E|---------------------------------------------------------------3-----------|

e|-------5-2---------3-0-----------------------------------------------------|
B|---------------------------------------------------------------------------|
G|---------------------------------------------------------------------------|
D|---------------------------------------------------------------------------|
A|-/5-5---------/3-3---------------------------------------------------------|
E|---------------------------------------------------------------------------|

e|-------2----2-0---0--------------------------------------------------------|
B|----------------3---1------------------------------------------------------|
G|---------------------------------------------------------------------------|
D|-0-0-----------------------------------------------------------------------|
A|---------------------------------------------------------------------------|
E|---------------------------------------------------------------------------|

end riff
e|---------------------------------------------------------------------------|
B|--2/5---2-----------1------------------------------------------------------|
G|-----------4--2--4----2-----------0----------------------------------------|
D|-------------------------4--2--4-----2--0---2/3----------------------------|
A|---------------------------------------------------------------------------|
E|---------------------------------------------------------------------------|

| /  slide up
| \  slide down
| h  hammer-on
| p  pull-off
| ~  vibrato
| +  harmonic
| x  Mute note
===============================================================================
Tap to rate this tab
# A B C D E F G H I J K L M N O P Q R S T U V W X Y Z