Song name
# A B C D E F G H I J K L M N O P Q R S T U V W X Y Z

Loquat - Harder Hit tab

-----------------------------------------------------------------------------
                             Harder Hit - Loquat
-----------------------------------------------------------------------------
Tabbed by: basuir79
E-mail: smithdude101@gmail.com

Tuning: Standard

Another fun song by the nostalgic melancholy band Loquat.

e|-----------------------------------------------------|
B|-------1--------------1------------------------------|
G|---1------1-------0------0-----------5--3--5--6-5\---|
D|-3---3-------3--1---1-----(1)---3--------------------|
A|------------------------------4---4------------------|
E|-----------------------------------------------------|

The note in the parentheses is optional. It's not in the song but it fits right in.
Tap to rate this tab
# A B C D E F G H I J K L M N O P Q R S T U V W X Y Z