Song name
# A B C D E F G H I J K L M N O P Q R S T U V W X Y Z

Loquat - Friend Without Thumbs tab

-----------------------------------------------------------------------------
                     Friend Without Thumbs - Loquat
-----------------------------------------------------------------------------
Tabbed by: basuir79
E-mail: smithdude101@gmail.com

Tuning: Standard

Verse

e|----------------------------|
B|--------------2-------------|
G|------2---4-------4---2-----|                       -- 
D|--2/4---4---4---4---4----4--|  X2                    |
A|----------------------------|                        |
E|----------------------------|                        |
                                                       |  X2
                                                       |
e|--------------------------5--3--2--------|           |
B|--------------2/5-5-2-5------------5-3---|           |
G|------2---4------------------------------|          --
D|--2/4---4---4----------------------------|
A|-----------------------------------------|
E|-----------------------------------------|

The final time you play the verse it ends on an A

2nd Verse

e|-2-----2-----2------2------5-2-2--5-2-2--7------7--------|
B|---------------3-3----3-3------------------5-5----5-5----|
G|---------------------------------------------------------|
D|---------------------------------------------------------|
A|---------------------------------------------------------|
E|---------------------------------------------------------|

e|-2-----2-----2------2------5-2-2--5-2-2--7------7------7------7-----|
B|---------------3-3----3-3------------------5-5----5-5----5-5----5---|
G|--------------------------------------------------------------------|
D|--------------------------------------------------------------------|
A|--------------------------------------------------------------------|
E|--------------------------------------------------------------------|

Chorus 

A - C - G - F

Order:

Verse
2nd Verse
Chorus
Verse
2nd Verse
Chorus
Bridge
Chorus
Verse

************************************

| /   slide up
| \   slide down
| h   hammer-on
| p   pull-off
| ~   vibrato
| +   harmonic
| x   Mute note
| b   Bend
| pb  Pre-bend
| br  Bend release
| pbr Pre-bend release
| brb Bend release bend
Tap to rate this tab
# A B C D E F G H I J K L M N O P Q R S T U V W X Y Z