Song name
# A B C D E F G H I J K L M N O P Q R S T U V W X Y Z

Loquillo Y Los Trogloditas - Balada Por Un Viejo Sombrero tab

Help us improve GuitareTab! Take a short survey!
---0---0---------------0------------------------------------|
---3----3--------------3--2---------------------------------|
---2-----2-------------2------1-2-2-1-2---------------------|
---0--------------2----2--------2-2-2-2--------------7------|
---0--------4-5--------0-----------------0--4h5----7---7----|
------------------------------------------------------------|

---0---0---------------0------------------------------------|
---3----3--------------3--2---------------------------------|
---2-----2-------------2------1-2-2-1-2---------------------|
---0--------------2----2--------2-2-2-2--------------7----4-|
---0--------4-5--------0-----------------0--4h5----7---7----|
------------------------------------------------------------|
Related for Balada Por Un Viejo Sombrero tab